Oops, an error
Loading. Please wait.

Hell Awaits tab

version 2
version 2

Whole song

by Slayer
5,513 views 6 this week
no commentswrite comment
1 2 3 4 5
x 4
add to favorites
×
Save as Personal and add changes to this tab that will be seen only by you. Learn more ›
×
You can save this tab as Personal to edit and correct it or add notes. All changes will be seen only by you. Learn more »
launch autoscroll
font size
0
reset
how to read this tab
guitar tuner
backing track
0:00
0:00
edit
Autoscroll
slow
fast
+/-
esc
set tempo
stop
Author
Difficulty
----------------------------------------------------------------------------
                            Hell Awaits - Slayer
----------------------------------------------------------------------------

Band:  Slayer
Album: Hell Awaits
Song:  Hell Awaits


Kerry King
D#||------------------|-------------------|-------------------|
A#||------------------|-------------------|-------------------|
F#||------------------|-------------------|-------------------|
C#||------------------|-------------------|-------------------|
G#||------------------|--2----------------|--------------2----|
D#||------------------|--0----------------|--------------0----|



-------------------|-------------------|-------------------|----------------
-------------------|-------------------|-------------------|----------------
-------------------|-------------------|-------------------|----------------
-------------------|-------------------|-------------------|----------------
--8----------------|--------------2----|--3----------------|--------------2-
--6----------------|--------------0----|--1----------------|--------------0-


-------------------|-------------------|--------------------|
-------------------|-------------------|--------------------|
-------------------|-------------------|--------------------|
-------------------|--------------9----|--10----------------|
--8----------------|--------------7----|--8-----------------|
--6----------------|-------------------|--------------------|



---------------------|-------------------|-------------------|
---------------------|-------------------|-------------------|
---------------------|-------------------|-------------------|
---------------------|-------------------|-------------------|
----------------2----|--3----------------|--------------2----|
------29/-------0----|--1----------------|--------------0----|



-------------------|----------------------------------|
-------------------|----------------------------------|
-------------------|----------------------------------|
-------------------|----------------------------------|
--8----------------|----------------------------------|
--6----------------|--0-0-0-0-0-0-0-0-0-0-0-0-0-0-0-0-|



-----------------------------------|----------------------------------|
-----------------------------------|----------------------------------|
-----------------------------------|----------------------------------|
--------------------------10-9-10--|----------------------------------|
--------------------------8--7-8---|----------------------------------|
--0-0-0-0-0-0-0-0-0-0-0-0----------|--0-0-0-0-0-0-0-0-0-0-0-0-0-0-0-0-|



---------------------------------|----------------------------------|
---------------------------------|----------------------------------|
---------------------------------|----------------------------------|
---------------------------------|----------------------------------|
--------------------------8-7-8--|----------------------------------|
--0-0-0-0-0-0-0-0-0-0-0-0-6-5-6--|--0-0-0-0-0-0-0-0-0-0-0-0-0-0-0-0-|



------------------------------|----------------------------------|
------------------------------|----------------------------------|
------------------------------|----------------------------------|
------10------7---------------|----------------------------------|
------8-------5------7--8--5--|----------------------------------|
--0-0-----0-0----0-0-5--6--3--|--0-0-0-0-0-0-0-0-0-0-0-0-0-0-0-0-|



--------------------------------|----------------------------------|
--------------------------------|----------------------------------|
--------------------------------|----------------------------------|
--------------------------------|----------------------------------|
------------------8-9-10--9--3--|----------------------------------|
--0-0-0-0-0-0-0-0-6-7-8---7--1--|--0-0-0-0-0-0-0-0-0-0-0-0-0-0-0-0-|



-----------------------------------|---------------------------------|
-----------------------------------|---------------------------------|
-----------------------------------|---------------------------------|
--------------------------10-9-10--|---------------------------------|
--------------------------8--7-8---|--------------------------8-7-8--|
--0-0-0-0-0-0-0-0-0-0-0-0----------|--0-0-0-0-0-0-0-0-0-0-0-0-6-5-6--|



------------------------------|----------------------------------|
------------------------------|----------------------------------|
------------------------------|----------------------------------|
------10------7---------------|----------------------------------|
------8-------5------7--8--5--|----------------------------------|
--0-0-----0-0----0-0-5--6--3--|--0-0-0-0-0-0-0-0-0-0-0-0-0-0-0-0-|



---------------------------------|---------------|
---------------------------------|---------------|
---------------------------------|---------------|
------------------10-9-10--9--7--|---------------|
------------------8--7-8---7--5--|--7-8-9--5--4--|
--0-0-0-0-0-0-0-0----------------|--5-6-7--3--2--|



------------------------------|------------------------------|
------------------------------|------------------------------|
------------------------------|------------------------------|
------------------------------|--------------------3------3--|
--2--2-2-2--2-2-2--2-2-2--2-2-|--2--2-2-2--2-2-2-2-1--2-2-1--|
--0--0-0-0--0-0-0--0-0-0--0-0-|--0--0-0-0--0-0-0-0----0-0----|



------------------------------|------------------------------|
------------------------------|------------------------------|
------------------------------|------------------------------|
------------------------------|--------------------3------3--|
--2--2-2-2--2-2-2--2-2-2--2-2-|--2--2-2-2--2-2-2-2-1--2-2-1--|
--0--0-0-0--0-0-0--0-0-0--0-0-|--0--0-0-0--0-0-0-0----0-0----|



--------------------------------|-----------------------------|
--------------------------------|-----------------------------|
--------------------------------|-----------------------------|
-----------------3--------------|--4--------------4--3--2-----|
--2--------------3--------------|--4--------------4--3--2--3--|
--0--0-0-0-0-0-0----0-0-0-0-0-0-|-----0-0-0-0-0-0----------3--|



--------------------------------|-----------------------------|
--------------------------------|-----------------------------|
--------------------------------|-----------------------------|
--2--------------3--------------|--4--------------4--3--2-----|
--2--------------3--------------|--4--------------4--3--2--3--|
--0--0-0-0-0-0-0----0-0-0-0-0-0-|-----0-0-0-0-0-0----------3--|



--------------------------------|-----------------------------|
--------------------------------|-----------------------------|
--------------------------------|-----------------------------|
--2--------------3--------------|--4--------------4--3--2-----|
--2--------------3--------------|--4--------------4--3--2--3--|
--0--0-0-0-0-0-0----0-0-0-0-0-0-|-----0-0-0-0-0-0----------3--|



--------------------------------|-----------------------------|
--------------------------------|-----------------------------|
--------------------------------|-----------------------------|
--2--------------3--------------|--4--------------4--3--2-----|
--2--------------3--------------|--4--------------4--3--2--3--|
--0--0-0-0-0-0-0----0-0-0-0-0-0-|-----0-0-0-0-0-0----------3--|



--------------------------------|-----------------------------|
--------------------------------|-----------------------------|
--------------------------------|-----------------------------|
--2--------------3--------------|--4--------------4--3--2-----|
--2--------------3--------------|--4--------------4--3--2--3--|
--0--0-0-0-0-0-0----0-0-0-0-0-0-|-----0-0-0-0-0-0----------3--|



--------------------------|------------------------------|
--------------------------|------------------------------|
--4--5--------------------|------------------------------|
--4--5--4--5--4--3--2-----|--9--9-9-9--9-9-9--10--9--10--|
--------4--5--4--3--2--3--|--7--7-7-7--7-7-7--8---7--8---|
-----------------------3--|------------------------------|



------------------------------|------------------------------|
------------------------------|------------------------------|
------------------------------|------------------------------|
--9--9-9-9--9-9-9--10--9--12--|--9--9-9-9--9-9-9--9-9-10--9--|
--7--7-7-7--7-7-7--8---7--10--|--7--7-7-7--7-7-7--7-7-8---7--|
------------------------------|------------------------------|



-----------------------------------|----------------------------------------
-----------------------------------|----------------------------------------
-----------------------------------|----------------------------------------
--10--10-10-10--9-9-9--12--10--12--|--12--12-12-12--12-12-12--10-10-12--10--
--8---8--8--8---7-7-7--10--8---10--|--10--10-10-10--10-10-10--8--8--10--8---
-----------------------------------|----------------------------------------



------------------------------|------------------------------|
------------------------------|------------------------------|
------------------------------|------------------------------|
--9--9-9-9--9-9-9--10--9--10--|--9--9-9-9--9-9-9--10--9--12--|
--7--7-7-7--7-7-7--8---7--8---|--7--7-7-7--7-7-7--8---7--10--|
------------------------------|------------------------------|



------------------------------|-----------------------------------|
------------------------------|-----------------------------------|
------------------------------|-----------------------------------|
--9--9-9-9--9-9-9--9-9-10--9--|--10--10-10-10--9-9-9--12--10--12--|
--7--7-7-7--7-7-7--7-7-8---7--|--8---8--8--8---7-7-7--10--8---10--|
------------------------------|-----------------------------------|



----------------------------------------|-----------------------------|
----------------------------------------|-----------------------------|
----------------------------------------|-----------------------------|
--12--12-12-12--12-12-12--10-10-12--10--|--9--------5--4--5--7--------|
--10--10-10-10--10-10-10--8--8--10--8---|--7--------3--2--3--5--5--4--|
----------------------------------------|-----------------------3--2--|



----------------------------------|------------------------------|
----------------------------------|------------------------------|
----------------------------------|------------------------------|
----------------------------------|--7/-6------5/-4--------------|
----------------------------------|--5/-4------3/-2--------------|
--0-0-0-0-0-0-0-0-0-0-0-0-0-0-0-0-|--------0-0-------0-0-0-0-0-0-|



--------------------------------|-------------------------|
--------------------------------|-------------------------|
--------------------------------|-------------------------|
--7/-6--------------------------|--7/-6-----10------10----|
--5/-4--------------------------|--5/-4-----8-------8-----|
--------0-0-0-0-0-0-0-0-0-0-0-0-|--------0----------------|



--------------------------------|------------------------------|
--------------------------------|------------------------------|
--------------------------------|------------------------------|
--7/-6--------------------------|--7/-6------5/-4--------------|
--5/-4--------------------------|--5/-4------3/-2--------------|
--------0-0-0-0-0-0-0-0-0-0-0-0-|--------0-0-------0-0-0-0-0-0-|



--------------------------------|-------------------------|
--------------------------------|-------------------------|
--------------------------------|-------------------------|
--7/-6--------------------------|--7/-6-----10------10----|
--5/-4--------------------------|--5/-4-----8-------8-----|
--------0-0-0-0-0-0-0-0-0-0-0-0-|--------0----------------|



--------------------------------|------------------------------|
--------------------------------|------------------------------|
--------------------------------|------------------------------|
--7/-6--------------------------|--7/-6------5/-4--------------|
--5/-4--------------------------|--5/-4------3/-2--------------|
--------0-0-0-0-0-0-0-0-0-0-0-0-|--------0-0-------0-0-0-0-0-0-|



--------------------------------|-------------------------|
--------------------------------|-------------------------|
--------------------------------|-------------------------|
--7/-6--------------------------|--7/-6-----10------10----|
--5/-4--------------------------|--5/-4-----8-------8-----|
--------0-0-0-0-0-0-0-0-0-0-0-0-|--------0----------------|



--------------------------------|------------------------------|
--------------------------------|------------------------------|
--------------------------------|------------------------------|
--7/-6--------------------------|--7/-6------5/-4--------------|
--5/-4--------------------------|--5/-4------3/-2--------------|
--------0-0-0-0-0-0-0-0-0-0-0-0-|--------0-0-------0-0-0-0-0-0-|



--------------------------------|----------------------|
--------------------------------|----------------------|
--------------------------------|----------------------|
--7/-6--------------------------|--7/-6-----8----------|
--5/-4--------------------------|--5/-4----------------|
--------0-0-0-0-0-0-0-0-0-0-0-0-|--------0-------------|



-------------------------------|------------------------------|
-------------------------------|------------------------------|
-------------------------------|------------------------------|
--------------------------3----|------------------3------3----|
--------------------------3----|------------------3------3----|
--3-3-3-3-3-3-3-3-3-3-3-3------|--3-3-3-3-3-3-3-3----3-3------|



-------------------------------|-------------------------------|
-------------------------------|-------------------------------|
-------------------------------|-------------------------------|
--------------------------3----|------------------3------8--7--|
--------------------------3----|------------------3------6--5--|
--3-3-3-3-3-3-3-3-3-3-3-3------|--3-3-3-3-3-3-3-3----3-3-------|



-------------------------------|------------------------------|
-------------------------------|------------------------------|
-------------------------------|------------------------------|
--------------------------3----|------------------3------3----|
--------------------------3----|------------------3------3----|
--3-3-3-3-3-3-3-3-3-3-3-3------|--3-3-3-3-3-3-3-3----3-3------|



-------------------------------|-------------------------------|
-------------------------------|-------------------------------|
-------------------------------|-------------------------------|
--------------------------3----|------------------3------8--7--|
--------------------------3----|------------------3------6--5--|
--3-3-3-3-3-3-3-3-3-3-3-3------|--3-3-3-3-3-3-3-3----3-3-------|



----------------------------------|----------------------------------|
----------------------------------|----------------------------------|
----------------------------------|----------------------------------|
----------------------------------|----------------------------------|
----------------------------------|--6-6-6-6-5-5-5-5-----------------|
--7-7-7-7-7-7-7-7-7-7-7-7-7-7-7-7-|------------------5-5-5-5-8-8-8-8-|



----------------------------------|----------------------------------|
----------------------------------|----------------------------------|
----------------------------------|----------------------------------|
----------------------------------|----------------------------------|
----------------------------------|--6-6-6-6-5-5-5-5-----------------|
--7-7-7-7-7-7-7-7-7-7-7-7-7-7-7-7-|------------------5-5-5-5-8-8-8-8-|



----------------------------------|----------------------------------|
----------------------------------|----------------------------------|
----------------------------------|----------------------------------|
----------------------------------|----------------------------------|
----------------------------------|--6-6-6-6-5-5-5-5-----------------|
--7-7-7-7-7-7-7-7-7-7-7-7-7-7-7-7-|------------------5-5-5-5-8-8-8-8-|



----------------------------------|----------------------------------|
----------------------------------|----------------------------------|
----------------------------------|----------------------------------|
----------------------------------|----------------------------------|
----------------------------------|--6-6-6-6-5-5-5-5-----------------|
--7-7-7-7-7-7-7-7-7-7-7-7-7-7-7-7-|------------------5-5-5-5-8-8-8-8-|



----------------------------------|----------------------------------|
----------------------------------|----------------------------------|
----------------------------------|----------------------------------|
----------------------------------|----------------------------------|
----------------------------------|----------------------------------|
--0-0-0-0-0-0-0-0-0-0-0-0-0-0-0-0-|--0-0-0-0-0-0-0-0-0-0-0-0-0-0-0-0-|



----------------------------------|----------------------------------|
----------------------------------|----------------------------------|
----------------------------------|----------------------------------|
----------------------------------|----------------------------------|
----------------------------------|----------------------------------|
--0-0-0-0-0-0-0-0-0-0-0-0-0-0-0-0-|--0-0-0-0-0-0-0-0-0-0-0-0-0-0-0-0-|



--------------------------------|------------------------------|
--------------------------------|------------------------------|
--------------------------------|------------------------------|
--7/-6--------------------------|--7/-6------5/-4--------------|
--5/-4--------------------------|--5/-4------3/-2--------------|
--------0-0-0-0-0-0-0-0-0-0-0-0-|--------0-0-------0-0-0-0-0-0-|



--------------------------------|-------------------------|
--------------------------------|-------------------------|
--------------------------------|-------------------------|
--7/-6--------------------------|--7/-6-----10------10----|
--5/-4--------------------------|--5/-4-----8-------8-----|
--------0-0-0-0-0-0-0-0-0-0-0-0-|--------0----------------|



--------------------------------|------------------------------|
--------------------------------|------------------------------|
--------------------------------|------------------------------|
--7/-6--------------------------|--7/-6------5/-4--------------|
--5/-4--------------------------|--5/-4------3/-2--------------|
--------0-0-0-0-0-0-0-0-0-0-0-0-|--------0-0-------0-0-0-0-0-0-|



--------------------------------|-------------------------|
--------------------------------|-------------------------|
--------------------------------|-------------------------|
--7/-6--------------------------|--7/-6-----10------10----|
--5/-4--------------------------|--5/-4-----8-------8-----|
--------0-0-0-0-0-0-0-0-0-0-0-0-|--------0----------------|



-------------------------------|------------------------------|
-------------------------------|------------------------------|
-------------------------------|------------------------------|
--------------------------3----|------------------3------3----|
--------------------------3----|------------------3------3----|
--3-3-3-3-3-3-3-3-3-3-3-3------|--3-3-3-3-3-3-3-3----3-3------|



-------------------------------|-------------------------------|
-------------------------------|-------------------------------|
-------------------------------|-------------------------------|
--------------------------3----|------------------3------8--7--|
--------------------------3----|------------------3------6--5--|
--3-3-3-3-3-3-3-3-3-3-3-3------|--3-3-3-3-3-3-3-3----3-3-------|



-------------------------------|------------------------------|
-------------------------------|------------------------------|
-------------------------------|------------------------------|
--------------------------3----|------------------3------3----|
--------------------------3----|------------------3------3----|
--3-3-3-3-3-3-3-3-3-3-3-3------|--3-3-3-3-3-3-3-3----3-3------|



-------------------------------|-------------------------------|
-------------------------------|-------------------------------|
-------------------------------|-------------------------------|
--------------------------3----|------------------3------8--7--|
--------------------------3----|------------------3------6--5--|
--3-3-3-3-3-3-3-3-3-3-3-3------|--3-3-3-3-3-3-3-3----3-3-------|



----------------------------------|----------------------------------|
----------------------------------|----------------------------------|
----------------------------------|----------------------------------|
----------------------------------|----------------------------------|
----------------------------------|--6-6-6-6-5-5-5-5-----------------|
--7-7-7-7-7-7-7-7-7-7-7-7-7-7-7-7-|------------------5-5-5-5-8-8-8-8-|



----------------------------------|----------------------------------|
----------------------------------|----------------------------------|
----------------------------------|----------------------------------|
----------------------------------|----------------------------------|
----------------------------------|--6-6-6-6-5-5-5-5-----------------|
--7-7-7-7-7-7-7-7-7-7-7-7-7-7-7-7-|------------------5-5-5-5-8-8-8-8-|



----------------------------------|----------------------------------|
----------------------------------|----------------------------------|
----------------------------------|----------------------------------|
----------------------------------|----------------------------------|
----------------------------------|--6-6-6-6-5-5-5-5-----------------|
--7-7-7-7-7-7-7-7-7-7-7-7-7-7-7-7-|------------------5-5-5-5-8-8-8-8-|



----------------------------------|----------------------------------|
----------------------------------|----------------------------------|
----------------------------------|----------------------------------|
----------------------------------|------------------------------10/-|
----------------------------------|--6-6-6-6-5-5-5-5-------------8/--|
--7-7-7-7-7-7-7-7-7-7-7-7-7-7-7-7-|------------------5-5-5-5-8-8-----|



--------------------------------|---------------------------------|
--------------------------------|---------------------------------|
--------------------------------|---------------------------------|
--9----------9/-10----------10/-|--11----------9/-10----------10/-|
--7----------7/-8-----------8/--|--9-----------7/-8-----------8/--|
-----0-0-0-0--------0-0-0-0-----|------0-0-0-0--------0-0-0-0-----|



--------------------------------|---------------------------------|
--------------------------------|---------------------------------|
--------------------------------|---------------------------------|
--9----------9/-10----------10/-|--11----------9/-10----------10/-|
--7----------7/-8-----------8/--|--9-----------7/-8-----------8/--|
-----0-0-0-0--------0-0-0-0-----|------0-0-0-0--------0-0-0-0-----|



--------------------------------|---------------------------------|
--------------------------------|---------------------------------|
--------------------------------|---------------------------------|
--9----------9/-10----------10/-|--11----------9/-10----------10/-|
--7----------7/-8-----------8/--|--9-----------7/-8-----------8/--|
-----0-0-0-0--------0-0-0-0-----|------0-0-0-0--------0-0-0-0-----|



--------------------------------|---------------------------------|
--------------------------------|---------------------------------|
--------------------------------|---------------------------------|
--9----------9/-10----------10/-|--11----------9/-10----------10/-|
--7----------7/-8-----------8/--|--9-----------7/-8-----------8/--|
-----0-0-0-0--------0-0-0-0-----|------0-0-0-0--------0-0-0-0-----|



--------------------------------|----------------------------------|
--------------------------------|----------------------------------|
--------------------------------|----------------------------------|
--9----------9/-10----------10/-|--11----------11/-12----------10/-|
--7----------7/-8-----------8/--|--9-----------9/--10----------8/--|
-----0-0-0-0--------0-0-0-0-----|------0-0-0-0---------0-0-0-0-----|



--------------------------------|----------------------------------|
--------------------------------|----------------------------------|
--------------------------------|----------------------------------|
--9----------9/-10----------10/-|--11----------11/-12----------10/-|
--7----------7/-8-----------8/--|--9-----------9/--10----------8/--|
-----0-0-0-0--------0-0-0-0-----|------0-0-0-0---------0-0-0-0-----|



--------------------------------|----------------------------------|
--------------------------------|----------------------------------|
--------------------------------|----------------------------------|
--9----------9/-10----------10/-|--11----------11/-12----------10/-|
--7----------7/-8-----------8/--|--9-----------9/--10----------8/--|
-----0-0-0-0--------0-0-0-0-----|------0-0-0-0---------0-0-0-0-----|



--------------------------------|----------------------------------|
--------------------------------|----------------------------------|
--------------------------------|----------------------------------|
--9----------9/-10----------10/-|--11----------11/-12--------------|
--7----------7/-8-----------8/--|--9-----------9/--10--------------|
-----0-0-0-0--------0-0-0-0-----|------0-0-0-0---------0-0-0-0-0-0-|



--------------------------------|--------------------------------|
--------------------------------|--------------------------------|
--------------------------------|--------------------------------|
--6----9----8-------------------|--6----9----8-------------------|
--4----7----6----9--------------|--4----7----6----9--------------|
-----------------7--7-7-7-7-7-7-|-----------------7--7-7-7-7-7-7-|



--------------------------------|--------------------------------|
--------------------------------|--------------------------------|
--------------------------------|--------------------------------|
--6----9----8-------------------|--6----9----8-------------------|
--4----7----6----9--------------|--4----7----6----9--------------|
-----------------7--7-7-7-7-7-7-|-----------------7--7-7-7-7-7-7-|



--------------------------------|--------------------------------|
--------------------------------|--------------------------------|
--------------------------------|--------------------------------|
--6----9----8-------------------|--6----9----8-------------------|
--4----7----6----9--------------|--4----7----6----9--------------|
-----------------7--7-7-7-7-7-7-|-----------------7--7-7-7-7-7-7-|



--------------------------------|--------------------------------|
--------------------------------|--------------------------------|
--------------------------------|--------------------------------|
--6----9----8-------------------|--6----9----8-------------------|
--4----7----6----9--------------|--4----7----6----9--------------|
-----------------7--7-7-7-7-7-7-|-----------------7--7-7-7-7-7-7-|



----------------------------------|----------------------------------|
----------------------------------|----------------------------------|
----------------------------------|----------------------------------|
----------------------------------|----------------------------------|
----------------------------------|--3-3-3-3-2-2-2-2-----------------|
--4-4-4-4-4-4-2-2-4-4-4-4-4-4-2-2-|------------------2-2-2-2-5-5-5-5-|



----------------------------------|----------------------------------|
----------------------------------|----------------------------------|
----------------------------------|----------------------------------|
----------------------------------|----------------------------------|
----------------------------------|--3-3-3-3-2-2-2-2-----------------|
--4-4-4-4-4-4-2-2-4-4-4-4-4-4-2-2-|------------------2-2-2-2-5-5-5-5-|



----------------------------------|----------------------------------|
----------------------------------|----------------------------------|
----------------------------------|----------------------------------|
----------------------------------|----------------------------------|
----------------------------------|--3-3-3-3-2-2-2-2-----------------|
--4-4-4-4-4-4-2-2-4-4-4-4-4-4-2-2-|------------------2-2-2-2-5-5-5-5-|



----------------------------------|----------------------------------|
----------------------------------|----------------------------------|
----------------------------------|----------------------------------|
----------------------------------|----------------------------------|
----------------------------------|--3-3-3-3-2-2-2-2-----------------|
--4-4-4-4-4-4-2-2-4-4-4-4-4-4-2-2-|------------------2-2-2-2-5-5-5-5-|



----------------------------------|----------------------------------|
----------------------------------|----------------------------------|
----------------------------------|----------------------------------|
----------------------------------|----------------------------------|
----------------------------------|--3-3-3-3-2-2-2-2-----------------|
--4-4-4-4-4-4-2-2-4-4-4-4-4-4-2-2-|------------------2-2-2-2-5-5-5-5-|



----------------------------------|----------------------|-------------------|
----------------------------------|----------------------|-------------------|
----------------------------------|----------------------|-------------------|
----------------------------------|--5----4--------------|-------------------|
----------------------------------|--3----2----4----7----|--2----------------|
--4-4-4-4-4-4-2-2-4-4-4-4-4-4-2-2-|------------2----5----|--0----------------|



---|---|--------------------|--------------------------------|
---|---|--------------------|--------------------------------|
---|---|--------------------|--------------------------------|
---|---|--------------------|--7/-6--------------------------|
---|---|--------------------|--5/-4--------------------------|
---|---|------10/-----------|--------0-0-0-0-0-0-0-0-0-0-0-0-|



------------------------------|--------------------------------|
------------------------------|--------------------------------|
------------------------------|--------------------------------|
--7/-6------5/-4--------------|--7/-6--------------------------|
--5/-4------3/-2--------------|--5/-4--------------------------|
--------0-0-------0-0-0-0-0-0-|--------0-0-0-0-0-0-0-0-0-0-0-0-|



-------------------------|-------------------------------|
-------------------------|-------------------------------|
-------------------------|-------------------------------|
--7/-6-----10------10----|--------------------------3----|
--5/-4-----8-------8-----|--------------------------3----|
--------0----------------|--3-3-3-3-3-3-3-3-3-3-3-3------|



------------------------------|-------------------------------|
------------------------------|-------------------------------|
------------------------------|-------------------------------|
------------------3------3----|--------------------------3----|
------------------3------3----|--------------------------3----|
--3-3-3-3-3-3-3-3----3-3------|--3-3-3-3-3-3-3-3-3-3-3-3------|



-------------------------------|-------------------------------|
-------------------------------|-------------------------------|
-------------------------------|-------------------------------|
------------------3------8--7--|--------------------------3----|
------------------3------6--5--|--------------------------3----|
--3-3-3-3-3-3-3-3----3-3-------|--3-3-3-3-3-3-3-3-3-3-3-3------|



------------------------------|-------------------------------|
------------------------------|-------------------------------|
------------------------------|-------------------------------|
------------------3------3----|--------------------------3----|
------------------3------3----|--------------------------3----|
--3-3-3-3-3-3-3-3----3-3------|--3-3-3-3-3-3-3-3-3-3-3-3------|



-------------------------------|----------------------------------|
-------------------------------|----------------------------------|
-------------------------------|----------------------------------|
------------------3------8--7--|----------------------------------|
------------------3------6--5--|----------------------------------|
--3-3-3-3-3-3-3-3----3-3-------|--7-7-7-7-7-7-7-7-7-7-7-7-7-7-7-7-|



----------------------------------|----------------------------------|
----------------------------------|----------------------------------|
----------------------------------|----------------------------------|
----------------------------------|----------------------------------|
--6-6-6-6-5-5-5-5-----------------|----------------------------------|
------------------5-5-5-5-8-8-8-8-|--7-7-7-7-7-7-7-7-7-7-7-7-7-7-7-7-|



----------------------------------|----------------------------------|
----------------------------------|----------------------------------|
----------------------------------|----------------------------------|
----------------------------------|----------------------------------|
--6-6-6-6-5-5-5-5-----------------|----------------------------------|
------------------5-5-5-5-8-8-8-8-|--7-7-7-7-7-7-7-7-7-7-7-7-7-7-7-7-|



----------------------------------|----------------------------------|
----------------------------------|----------------------------------|
----------------------------------|----------------------------------|
----------------------------------|----------------------------------|
--6-6-6-6-5-5-5-5-----------------|----------------------------------|
------------------5-5-5-5-8-8-8-8-|--7-7-7-7-7-7-7-7-7-7-7-7-7-7-7-7-|



----------------------------------|----------------------------------|
----------------------------------|----------------------------------|
----------------------------------|----------------------------------|
----------------------------------|----------------------------------|
--6-6-6-6-5-5-5-5-----------------|----------------------------------|
------------------5-5-5-5-8-8-8-8-|--0-0-0-0-0-0-0-0-0-0-0-0-0-0-0-0-|



----------------------------------|----------------------------------|
----------------------------------|----------------------------------|
----------------------------------|----------------------------------|
----------------------------------|----------------------------------|
----------------------------------|----------------------------------|
--0-0-0-0-0-0-0-0-0-0-0-0-0-0-0-0-|--0-0-0-0-0-0-0-0-0-0-0-0-0-0-0-0-|



-------------------|--------------------------------|
-------------------|--------------------------------|
-------------------|--------------------------------|
-------------------|--7/-6--------------------------|
-------------------|--5/-4--------------------------|
--0----------------|--------0-0-0-0-0-0-0-0-0-0-0-0-|



------------------------------|--------------------------------|
------------------------------|--------------------------------|
------------------------------|--------------------------------|
--7/-6------5/-4--------------|--7/-6--------------------------|
--5/-4------3/-2--------------|--5/-4--------------------------|
--------0-0-------0-0-0-0-0-0-|--------0-0-0-0-0-0-0-0-0-0-0-0-|



-------------------------|--------------------------------|
-------------------------|--------------------------------|
-------------------------|--------------------------------|
--7/-6-----10------10----|--7/-6--------------------------|
--5/-4-----8-------8-----|--5/-4--------------------------|
--------0----------------|--------0-0-0-0-0-0-0-0-0-0-0-0-|



------------------------------|--------------------------------|
------------------------------|--------------------------------|
------------------------------|--------------------------------|
--7/-6------5/-4--------------|--7/-6--------------------------|
--5/-4------3/-2--------------|--5/-4--------------------------|
--------0-0-------0-0-0-0-0-0-|--------0-0-0-0-0-0-0-0-0-0-0-0-|



---------------------------|--------------------------------|
---------------------------|--------------------------------|
---------------------------|--------------------------------|
--7/-6-----10------10--10/-|--9----------9/-10----------10/-|
--5/-4-----8-------8---8/--|--7----------7/-8-----------8/--|
--------0------------------|-----0-0-0-0--------0-0-0-0-----|



----------------------------------|--------------------------------|
----------------------------------|--------------------------------|
----------------------------------|--------------------------------|
--11--------------------------10/-|--9----------9/-10----------10/-|
--9---------------------------8/--|--7----------7/-8-----------8/--|
------0-0-0-0-0-0-0-0-0-0-0-0-----|-----0-0-0-0--------0-0-0-0-----|



----------------------------------|--------------------------------|
----------------------------------|--------------------------------|
----------------------------------|--------------------------------|
--11--------------------------10/-|--9----------9/-10----------10/-|
--9---------------------------8/--|--7----------7/-8-----------8/--|
------0-0-0-0-0-0-0-0-0-0-0-0-----|-----0-0-0-0--------0-0-0-0-----|



----------------------------------|--------------------------------|
----------------------------------|--------------------------------|
----------------------------------|--------------------------------|
--11--------------------------10/-|--9----------9/-10----------10/-|
--9---------------------------8/--|--7----------7/-8-----------8/--|
------0-0-0-0-0-0-0-0-0-0-0-0-----|-----0-0-0-0--------0-0-0-0-----|



----------------------------------|--------------------------------|
----------------------------------|--------------------------------|
----------------------------------|--------------------------------|
--11--------------------------10/-|--9----------9/-10----------10/-|
--9---------------------------8/--|--7----------7/-8-----------8/--|
------0-0-0-0-0-0-0-0-0-0-0-0-----|-----0-0-0-0--------0-0-0-0-----|



----------------------------------|--------------------------------|
----------------------------------|--------------------------------|
----------------------------------|--------------------------------|
--11----------11/-12----------10/-|--9----------9/-10----------10/-|
--9-----------9/--10----------8/--|--7----------7/-8-----------8/--|
------0-0-0-0---------0-0-0-0-----|-----0-0-0-0--------0-0-0-0-----|



----------------------------------|--------------------------------|
----------------------------------|--------------------------------|
----------------------------------|--------------------------------|
--11----------11/-12----------10/-|--9----------9/-10----------10/-|
--9-----------9/--10----------8/--|--7----------7/-8-----------8/--|
------0-0-0-0---------0-0-0-0-----|-----0-0-0-0--------0-0-0-0-----|



----------------------------------|--------------------------------|
----------------------------------|--------------------------------|
----------------------------------|--------------------------------|
--11----------11/-12----------10/-|--9----------9/-10----------10/-|
--9-----------9/--10----------8/--|--7----------7/-8-----------8/--|
------0-0-0-0---------0-0-0-0-----|-----0-0-0-0--------0-0-0-0-----|



--------------------------|-------------------|--------------------|
-----------------------1/-|--5~---------------|--------------------|
--------------------------|-------------------|--5-----------------|
--11----------------------|-------------------|---------------4----|
--9-----------2-----------|-------------------|--------------------|
------0-0-0-0-0-----------|-------------------|--------------------|



-----------------------|-------------------|
-------------------12--|-------------------|
-----------------------|-------------------|
------4--4------4/-----|-------------------|
-----------------------|-------------------|
-----------------------|----------0/-------|



--------------------------------------------|
--------------------------------------------|
--------------------------------------------|
--------------------------------------------|
--------------------------------12-13----12-|
--12----12-13-15-12-13-15-15-13-------13----|



--------------------------------------------------|
--------------------------------------------------|
--------------------------------12-13-15-15-15-15-|
-----------------13-15-12-13-15-------------------|
--15-12-15-15-12----------------------------------|
--------------------------------------------------|



--12----------------------14----------------------|
-----15-13-12----------------17-15-14-------------|
--------------15-13-12-12-------------17-15-14-14-|
--------------------------------------------------|
--------------------------------------------------|
--------------------------------------------------|



--15----------------------17----------------------|--24~---------------|
-----18-17-15----------------20-19-17-------------|--------------------|
--------------18-17-15-15-------------20-19-17-17-|--------------------|
--------------------------------------------------|--------------------|
--------------------------------------------------|--------------------|
--------------------------------------------------|--------------------|



--24b---------------|--24r-----------19-19-19-20-|
--------------------|----------------------------|
--------------------|----------------------------|
--------------------|----------------------------|
--------------------|----------------------------|
--------------------|----------------------------|



--20-21-20-19-18-18-------------------------|
--------------------21-20-19-18-------------|
--------------------------------20-19-18/---|
--------------------------------------------|
--------------------------------------------|
--------------------------------------------|



----------------------------------------------------------|
----------------------------------------------------------|
--15t13h11-14t12h10-13t11h9-12t10h8-10t9h7-9t8h6-8t7h5-5/-|
----------------------------------------------------------|
----------------------------------------------------------|
----------------------------------------------------------|



-----------------------------------------------------------------|
-----------------------------------------------------------------|
--17t15h14-16t14h13-15t13h12-14t12h11-13t11h10-12t10h9-11t9h8-8/-|
-----------------------------------------------------------------|
-----------------------------------------------------------------|
-----------------------------------------------------------------|



---------------------------------------------------------------------|
---------------------------------------------------------------------|
--19t17h16-18t16h15-17t15h14-16t14h13-15t13h12-14t12h11-13t11h10-10/-|
---------------------------------------------------------------------|
---------------------------------------------------------------------|
---------------------------------------------------------------------|



--------19----19----19------|--22r-----------22~---|--24b-24b-------------|
--21r---22r---22r---22r--17/|----------------------|----------------------|
----------------------------|----------------------|----------------------|
----------------------------|----------------------|----------------------|
----------------------------|----------------------|----------------------|
----------------------------|----------------------|----------------------|



------||
------||
------||
------||
------||
------||




+++++++++++++++++++++++++++++++++++++++++++++++++++++++++++++++++++++++++++++++

Jeff Hanneman
D#||------------------|----------------------------------|
A#||------------------|----------------------------------|
F#||------------------|----------------------------------|
C#||------------------|----------------------------------|
G#||------------------|----------------------------------|
D#||------------------|--0-0-0-0-0-0-0-0-0-0-0-0-0-0-0-0-|



----------------------------------|----------------------------------|
----------------------------------|----------------------------------|
----------------------------------|----------------------------------|
----------------------------------|----------------------------------|
----------------------------------|----------------------------------|
--0-0-0-0-0-0-0-0-0-0-0-0-0-0-0-0-|--0-0-0-0-0-0-0-0-0-0-0-0-0-0-0-0-|



----------------------------------|----------------------------------|
----------------------------------|----------------------------------|
----------------------------------|----------------------------------|
----------------------------------|----------------------------------|
----------------------------------|----------------------------------|
--0-0-0-0-0-0-0-0-0-0-0-0-0-0-0-0-|--0-0-0-0-0-0-0-0-0-0-0-0-0-0-0-0-|



----------------------------------|----------------------------------|
----------------------------------|----------------------------------|
----------------------------------|----------------------------------|
----------------------------------|----------------------------------|
----------------------------------|----------------------------------|
--0-0-0-0-0-0-0-0-0-0-0-0-0-0-0-0-|--0-0-0-0-0-0-0-0-0-0-0-0-0-0-0-0-|



----------------------------------|----------------------------------|
----------------------------------|----------------------------------|
----------------------------------|----------------------------------|
----------------------------------|----------------------------------|
----------------------------------|----------------------------------|
--0-0-0-0-0-0-0-0-0-0-0-0-0-0-0-0-|--0-0-0-0-0-0-0-0-0-0-0-0-0-0-0-0-|



----------------------------------|----------------------------------|
----------------------------------|----------------------------------|
----------------------------------|----------------------------------|
----------------------------------|----------------------------------|
----------------------------------|----------------------------------|
--0-0-0-0-0-0-0-0-0-0-0-0-0-0-0-0-|--0-0-0-0-0-0-0-0-0-0-0-0-0-0-0-0-|



----------------------------------|----------------------------------|
----------------------------------|----------------------------------|
----------------------------------|----------------------------------|
----------------------------------|----------------------------------|
----------------------------------|----------------------------------|
--0-0-0-0-0-0-0-0-0-0-0-0-0-0-0-0-|--0-0-0-0-0-0-0-0-0-0-0-0-0-0-0-0-|



----------------------------------|-----------------------------------|
----------------------------------|-----------------------------------|
----------------------------------|-----------------------------------|
----------------------------------|--------------------------10-9-10--|
----------------------------------|--------------------------8--7-8---|
--0-0-0-0-0-0-0-0-0-0-0-0-0-0-0-0-|--0-0-0-0-0-0-0-0-0-0-0-0----------|



----------------------------------|---------------------------------|
----------------------------------|---------------------------------|
----------------------------------|---------------------------------|
----------------------------------|---------------------------------|
----------------------------------|--------------------------8-7-8--|
--0-0-0-0-0-0-0-0-0-0-0-0-0-0-0-0-|--0-0-0-0-0-0-0-0-0-0-0-0-6-5-6--|



----------------------------------|------------------------------|
----------------------------------|------------------------------|
----------------------------------|------------------------------|
----------------------------------|------10------7---------------|
----------------------------------|------8-------5------7--8--5--|
--0-0-0-0-0-0-0-0-0-0-0-0-0-0-0-0-|--0-0-----0-0----0-0-5--6--3--|



----------------------------------|--------------------------------|
----------------------------------|--------------------------------|
----------------------------------|--------------------------------|
----------------------------------|--------------------------------|
----------------------------------|------------------8-9-10--9--3--|
--0-0-0-0-0-0-0-0-0-0-0-0-0-0-0-0-|--0-0-0-0-0-0-0-0-6-7-8---7--1--|



----------------------------------|-----------------------------------|
----------------------------------|-----------------------------------|
----------------------------------|-----------------------------------|
----------------------------------|--------------------------10-9-10--|
----------------------------------|--------------------------8--7-8---|
--0-0-0-0-0-0-0-0-0-0-0-0-0-0-0-0-|--0-0-0-0-0-0-0-0-0-0-0-0----------|



---------------------------------|------------------------------|
---------------------------------|------------------------------|
---------------------------------|------------------------------|
---------------------------------|------10------7---------------|
--------------------------8-7-8--|------8-------5------7--8--5--|
--0-0-0-0-0-0-0-0-0-0-0-0-6-5-6--|--0-0-----0-0----0-0-5--6--3--|



----------------------------------|---------------------------------|
----------------------------------|---------------------------------|
----------------------------------|---------------------------------|
----------------------------------|------------------10-9-10--9--7--|
----------------------------------|------------------8--7-8---7--5--|
--0-0-0-0-0-0-0-0-0-0-0-0-0-0-0-0-|--0-0-0-0-0-0-0-0----------------|



-----------------|------------------------------|---------------------------
-----------------|------------------------------|---------------------------
-----------------|------------------------------|---------------------------
---------12--11--|------------------------------|--------------------3----3-
--7-8-9--10--9---|--2--2-2-2--2-2-2--2-2-2--2-2-|--2--2-2-2--2-2-2-2-1--2-1-
--5-6-7----------|--0--0-0-0--0-0-0--0-0-0--0-0-|--0--0-0-0--0-0-0-0----0-0-



------------------------------|------------------------------|
------------------------------|------------------------------|
------------------------------|------------------------------|
------------------------------|--------------------3------3--|
--2--2-2-2--2-2-2--2-2-2--2-2-|--2--2-2-2--2-2-2-2-1--2-2-1--|
--0--0-0-0--0-0-0--0-0-0--0-0-|--0--0-0-0--0-0-0-0----0-0----|



--------------------------------|-----------------------------|
--------------------------------|-----------------------------|
--------------------------------|-----------------------------|
-----------------3--------------|--4--------------4--3--2-----|
--2--------------3--------------|--4--------------4--3--2--3--|
--0--0-0-0-0-0-0----0-0-0-0-0-0-|-----0-0-0-0-0-0----------3--|



--------------------------------|-----------------------------|
--------------------------------|-----------------------------|
--------------------------------|-----------------------------|
--2--------------3--------------|--4--------------4--3--2-----|
--2--------------3--------------|--4--------------4--3--2--3--|
--0--0-0-0-0-0-0----0-0-0-0-0-0-|-----0-0-0-0-0-0----------3--|



--------------------------------|-----------------------------|
--------------------------------|-----------------------------|
--------------------------------|-----------------------------|
--2--------------3--------------|--4--------------4--3--2-----|
--2--------------3--------------|--4--------------4--3--2--3--|
--0--0-0-0-0-0-0----0-0-0-0-0-0-|-----0-0-0-0-0-0----------3--|



--------------------------------|-----------------------------|
--------------------------------|-----------------------------|
--------------------------------|-----------------------------|
--2--------------3--------------|--4--------------4--3--2-----|
--2--------------3--------------|--4--------------4--3--2--3--|
--0--0-0-0-0-0-0----0-0-0-0-0-0-|-----0-0-0-0-0-0----------3--|



--------------------------------|-----------------------------|
--------------------------------|-----------------------------|
--------------------------------|-----------------------------|
--2--------------3--------------|--4--------------4--3--2-----|
--2--------------3--------------|--4--------------4--3--2--3--|
--0--0-0-0-0-0-0----0-0-0-0-0-0-|-----0-0-0-0-0-0----------3--|



--------------------------|------------------|------------------|
--------------------------|------------------|------------------|
--4--5--------------------|------------------|------------------|
--4--5--4--5--4--3--2-----|------------------|------------------|
--------4--5--4--3--2--3--|------------------|------------------|
-----------------------3--|------------------|------------------|



------------------|------------------|------------------|------------------|
------------------|------------------|------------------|------------------|
------------------|------------------|------------------|------------------|
------------------|------------------|------------------|------------------|
------------------|------------------|------------------|------------------|
------------------|------------------|------------------|------------------|



------------------|------------------|------------------|------------------|
------------------|------------------|------------------|------------------|
------------------|------------------|------------------|------------------|
------------------|------------------|------------------|------------------|
------------------|------------------|------------------|------------------|
------------------|------------------|------------------|------------------|



----------------------------|-------------------|------------------|
----------------------------|-------------------|------------------|
----------------------------|-------------------|------------------|
----------5--4--5--7--------|-------------------|------------------|
----------3--2--3--5--5--4--|--2----------------|------------------|
----------------------3--2--|--0----------------|------------------|



------------------|------------------|------------------|------------------|
------------------|------------------|------------------|------------------|
------------------|------------------|------------------|------------------|
------------------|------------------|------------------|------------------|
------------------|------------------|------------------|------------------|
------------------|------------------|------------------|------------------|



------------------|------------------|--------------------------------|
------------------|------------------|--------------------------------|
------------------|------------------|--------------------------------|
------------------|------------------|--7/-6--------------------------|
------------------|------------------|--5/-4--------------------------|
------------------|------------------|--------0-0-0-0-0-0-0-0-0-0-0-0-|



------------------------------|--------------------------------|
------------------------------|--------------------------------|
------------------------------|--------------------------------|
--7/-6------5/-4--------------|--7/-6--------------------------|
--5/-4------3/-2--------------|--5/-4--------------------------|
--------0-0-------0-0-0-0-0-0-|--------0-0-0-0-0-0-0-0-0-0-0-0-|



-------------------------|--------------------------------|
-------------------------|--------------------------------|
-------------------------|--------------------------------|
--7/-6-----10------10----|--7/-6--------------------------|
--5/-4-----8-------8-----|--5/-4--------------------------|
--------0----------------|--------0-0-0-0-0-0-0-0-0-0-0-0-|



------------------------------|--------------------------------|
------------------------------|--------------------------------|
------------------------------|--------------------------------|
--7/-6------5/-4--------------|--7/-6--------------------------|
--5/-4------3/-2--------------|--5/-4--------------------------|
--------0-0-------0-0-0-0-0-0-|--------0-0-0-0-0-0-0-0-0-0-0-0-|



-------------------------|-------------------------------|
-------------------------|-------------------------------|
-------------------------|-------------------------------|
--7/-6-----10------10----|--------------------------3----|
--5/-4-----8-------8-----|--------------------------3----|
--------0----------------|--3-3-3-3-3-3-3-3-3-3-3-3------|



------------------------------|-------------------------------|
------------------------------|-------------------------------|
------------------------------|-------------------------------|
------------------3------3----|--------------------------3----|
------------------3------3----|--------------------------3----|
--3-3-3-3-3-3-3-3----3-3------|--3-3-3-3-3-3-3-3-3-3-3-3------|



-------------------------------|-------------------------------|
-------------------------------|-------------------------------|
-------------------------------|-------------------------------|
------------------3------8--7--|--------------------------3----|
------------------3------6--5--|--------------------------3----|
--3-3-3-3-3-3-3-3----3-3-------|--3-3-3-3-3-3-3-3-3-3-3-3------|



------------------------------|-------------------------------|
------------------------------|-------------------------------|
------------------------------|-------------------------------|
------------------3------3----|--------------------------3----|
------------------3------3----|--------------------------3----|
--3-3-3-3-3-3-3-3----3-3------|--3-3-3-3-3-3-3-3-3-3-3-3------|



-------------------------------|----------------------------------|
-------------------------------|----------------------------------|
-------------------------------|----------------------------------|
------------------3------8--7--|----------------------------------|
------------------3------6--5--|----------------------------------|
--3-3-3-3-3-3-3-3----3-3-------|--7-7-7-7-7-7-7-7-7-7-7-7-7-7-7-7-|



----------------------------------|----------------------------------|
----------------------------------|----------------------------------|
----------------------------------|----------------------------------|
----------------------------------|----------------------------------|
--6-6-6-6-5-5-5-5-----------------|----------------------------------|
------------------5-5-5-5-8-8-8-8-|--7-7-7-7-7-7-7-7-7-7-7-7-7-7-7-7-|



----------------------------------|----------------------------------|
----------------------------------|----------------------------------|
----------------------------------|----------------------------------|
----------------------------------|----------------------------------|
--6-6-6-6-5-5-5-5-----------------|----------------------------------|
------------------5-5-5-5-8-8-8-8-|--7-7-7-7-7-7-7-7-7-7-7-7-7-7-7-7-|



----------------------------------|----------------------------------|
----------------------------------|----------------------------------|
----------------------------------|----------------------------------|
----------------------------------|----------------------------------|
--6-6-6-6-5-5-5-5-----------------|----------------------------------|
------------------5-5-5-5-8-8-8-8-|--7-7-7-7-7-7-7-7-7-7-7-7-7-7-7-7-|



----------------------------------|------------------|------------------|
----------------------------------|------------------|------------------|
----------------------------------|------------------|------------------|
----------------------------------|------------------|------------------|
--6-6-6-6-5-5-5-5-----------------|------------------|------------------|
------------------5-5-5-5-8-8-8-8-|------------------|------------------|



------------------|----------------------------------|
------------------|----------------------------------|
------------------|----------------------------------|
------------------|----------------------------------|
------------------|--x---x-x-x-x-x-x-x-x-x-x-x-x-x-x-|
------------------|--29/-----------------------------|



--------------------------------|------------------------------|
--------------------------------|------------------------------|
--------------------------------|------------------------------|
--7/-6--------------------------|--7/-6------5/-4--------------|
--5/-4--------------------------|--5/-4------3/-2--------------|
--------0-0-0-0-0-0-0-0-0-0-0-0-|--------0-0-------0-0-0-0-0-0-|



--------------------------------|-------------------------|
--------------------------------|-------------------------|
--------------------------------|-------------------------|
--7/-6--------------------------|--7/-6-----10------10----|
--5/-4--------------------------|--5/-4-----8-------8-----|
--------0-0-0-0-0-0-0-0-0-0-0-0-|--------0----------------|



--------------------------------|------------------------------|
--------------------------------|------------------------------|
--------------------------------|------------------------------|
--7/-6--------------------------|--7/-6------5/-4--------------|
--5/-4--------------------------|--5/-4------3/-2--------------|
--------0-0-0-0-0-0-0-0-0-0-0-0-|--------0-0-------0-0-0-0-0-0-|



--------------------------------|-------------------------|
--------------------------------|-------------------------|
--------------------------------|-------------------------|
--7/-6--------------------------|--7/-6-----10------10----|
--5/-4--------------------------|--5/-4-----8-------8-----|
--------0-0-0-0-0-0-0-0-0-0-0-0-|--------0----------------|



-------------------------------|------------------------------|
-------------------------------|------------------------------|
-------------------------------|------------------------------|
--------------------------3----|------------------3------3----|
--------------------------3----|------------------3------3----|
--3-3-3-3-3-3-3-3-3-3-3-3------|--3-3-3-3-3-3-3-3----3-3------|



-------------------------------|-------------------------------|
-------------------------------|-------------------------------|
-------------------------------|-------------------------------|
--------------------------3----|------------------3------8--7--|
--------------------------3----|------------------3------6--5--|
--3-3-3-3-3-3-3-3-3-3-3-3------|--3-3-3-3-3-3-3-3----3-3-------|



-------------------------------|------------------------------|
-------------------------------|------------------------------|
-------------------------------|------------------------------|
--------------------------3----|------------------3------3----|
--------------------------3----|------------------3------3----|
--3-3-3-3-3-3-3-3-3-3-3-3------|--3-3-3-3-3-3-3-3----3-3------|



-------------------------------|-------------------------------|
-------------------------------|-------------------------------|
-------------------------------|-------------------------------|
--------------------------3----|------------------3------8--7--|
--------------------------3----|------------------3------6--5--|
--3-3-3-3-3-3-3-3-3-3-3-3------|--3-3-3-3-3-3-3-3----3-3-------|



----------------------------------|----------------------------------|
----------------------------------|----------------------------------|
----------------------------------|----------------------------------|
----------------------------------|----------------------------------|
----------------------------------|--6-6-6-6-5-5-5-5-----------------|
--7-7-7-7-7-7-7-7-7-7-7-7-7-7-7-7-|------------------5-5-5-5-8-8-8-8-|



----------------------------------|----------------------------------|
----------------------------------|----------------------------------|
----------------------------------|----------------------------------|
----------------------------------|----------------------------------|
----------------------------------|--6-6-6-6-5-5-5-5-----------------|
--7-7-7-7-7-7-7-7-7-7-7-7-7-7-7-7-|------------------5-5-5-5-8-8-8-8-|



----------------------------------|----------------------------------|
----------------------------------|----------------------------------|
----------------------------------|----------------------------------|
----------------------------------|----------------------------------|
----------------------------------|--6-6-6-6-5-5-5-5-----------------|
--7-7-7-7-7-7-7-7-7-7-7-7-7-7-7-7-|------------------5-5-5-5-8-8-8-8-|



----------------------------------|----------------------------------|
----------------------------------|----------------------------------|
----------------------------------|----------------------------------|
----------------------------------|------------------------------10/-|
----------------------------------|--6-6-6-6-5-5-5-5-------------8/--|
--7-7-7-7-7-7-7-7-7-7-7-7-7-7-7-7-|------------------5-5-5-5-8-8-----|



--------------------------------|---------------------------------|
--------------------------------|---------------------------------|
--------------------------------|---------------------------------|
--9----------9/-10----------10/-|--11----------9/-10----------10/-|
--7----------7/-8-----------8/--|--9-----------7/-8-----------8/--|
-----0-0-0-0--------0-0-0-0-----|------0-0-0-0--------0-0-0-0-----|



--------------------------------|---------------------------------|
--------------------------------|---------------------------------|
--------------------------------|---------------------------------|
--9----------9/-10----------10/-|--11----------9/-10----------10/-|
--7----------7/-8-----------8/--|--9-----------7/-8-----------8/--|
-----0-0-0-0--------0-0-0-0-----|------0-0-0-0--------0-0-0-0-----|



--------------------------------|---------------------------------|
--------------------------------|---------------------------------|
--------------------------------|---------------------------------|
--9----------9/-10----------10/-|--11----------9/-10----------10/-|
--7----------7/-8-----------8/--|--9-----------7/-8-----------8/--|
-----0-0-0-0--------0-0-0-0-----|------0-0-0-0--------0-0-0-0-----|



--------------------------------|---------------------------------|
--------------------------------|---------------------------------|
--------------------------------|---------------------------------|
--9----------9/-10----------10/-|--11----------9/-10----------10/-|
--7----------7/-8-----------8/--|--9-----------7/-8-----------8/--|
-----0-0-0-0--------0-0-0-0-----|------0-0-0-0--------0-0-0-0-----|



--------------------------------|----------------------------------|
--------------------------------|----------------------------------|
--------------------------------|----------------------------------|
--9----------9/-10----------10/-|--11----------11/-12----------10/-|
--7----------7/-8-----------8/--|--9-----------9/--10----------8/--|
-----0-0-0-0--------0-0-0-0-----|------0-0-0-0---------0-0-0-0-----|



--------------------------------|----------------------------------|
--------------------------------|----------------------------------|
--------------------------------|----------------------------------|
--9----------9/-10----------10/-|--11----------11/-12----------10/-|
--7----------7/-8-----------8/--|--9-----------9/--10----------8/--|
-----0-0-0-0--------0-0-0-0-----|------0-0-0-0---------0-0-0-0-----|



--------------------------------|----------------------------------|
--------------------------------|----------------------------------|
--------------------------------|----------------------------------|
--9----------9/-10----------10/-|--11----------11/-12----------10/-|
--7----------7/-8-----------8/--|--9-----------9/--10----------8/--|
-----0-0-0-0--------0-0-0-0-----|------0-0-0-0---------0-0-0-0-----|



--------------------------------|-------------------------------|
--------------------------------|-------------------------------|
--------------------------------|-------------------------------|
--9----------9/-10----------10/-|--11----------11/-12-----------|
--7----------7/-8-----------8/--|--9-----------9/--10-----------|
-----0-0-0-0--------0-0-0-0-----|------0-0-0-0---------0-0-0----|



-------------------|------------------|-------------------|-----------------
-------------------|------------------|-------------------|-----------------
--5----------------|------------------|--3----------------|-----------------
-------------------|------------------|-------------------|-----------------
-------------------|------------------|-------------------|-----------------
-------------------|------------------|-------------------|-----------------



---------------------|-------------------|-------------------|
---------------------|-------------------|-------------------|
--0--------0/---0----|--0----------------|--5----------------|
--0--------0/---0----|--0----------------|-------------------|
---------------------|-------------------|-------------------|
---------------------|-------------------|-------------------|



------------------|--------------------|
------------------|--8~-------8~-------|
------------------|--7b-------7b-------|
------------------|--------------------|
------------------|--------------------|
------------------|--------------------|



------------------------------------------|
--9-9-9-10-12-10-12-10-12-10-12-10-9-9-9--|
------------------------------------------|
------------------------------------------|
------------------------------------------|
------------------------------------------|



-------------------------------------------------|
--9-11-12-11-13-14-12-14-15-12-14-15-12-14-15-15-|
-------------------------------------------------|
-------------------------------------------------|
-------------------------------------------------|
-------------------------------------------------|



--12-12-14-15-15-15-14-12-12-14-14-12-12-14-12--|
------------------------------------------------|
------------------------------------------------|
------------------------------------------------|
------------------------------------------------|
------------------------------------------------|



--------------------------------------------------|
--12-12-13-15-15-15-13-12-------------------------|
--------------------------12-12-13-15-12-13-15-15-|
--------------------------------------------------|
--------------------------------------------------|
--------------------------------------------------|



--------------------------------------------|
--------------------------------------------|
--------------------------------------------|
--11-13-14-11-11-13-14-14-------------------|
--------------------------12-14-15-15-11~---|
--------------------------------------------|



----------------------------------------------|
----------------------------------------------|
----------------------------------------------|
----------------------------12-13-15-12-13-15-|
----12-13-15-15-12-13-15-15-------------------|
----------------------------------------------|



----------------------------------------|
----------------------------------------|
----------12-13-15-12-13-15-15-12-13-15-|
--12~-----------------------------------|
----------------------------------------|
----------------------------------------|



------------------------------------------------------------|
--12-15-12-15-12----12-15-12-15-12----12-15-12-15-12-15-----|
-----------------14----------------14-------------------14--|
------------------------------------------------------------|
------------------------------------------------------------|
------------------------------------------------------------|



------------------------------------------------------------|
--12-15-12-15-12----12-15-12-15-12----12-15-12-15-12-15-----|
-----------------14----------------14-------------------14--|
------------------------------------------------------------|
------------------------------------------------------------|
------------------------------------------------------------|



------------------------------------------------------------|
--13-17-13-17-13----13-17-13-17-13----13-17-13-17-13-17-----|
-----------------14----------------14-------------------14--|
------------------------------------------------------------|
------------------------------------------------------------|
------------------------------------------------------------|



------------------------------------------------------------|
--13-17-13-17-13----13-17-13-17-13----13-17-13-17-13-17-----|
-----------------14----------------14-------------------14--|
------------------------------------------------------------|
------------------------------------------------------------|
------------------------------------------------------------|



--20b-------20~---20~---|--20~-------20~---20~---|--20~-------20~---20~---|
------------------------|------------------------|------------------------|
------------------------|------------------------|------------------------|
------------------------|------------------------|------------------------|
------------------------|------------------------|------------------------|
------------------------|------------------------|------------------------|



--20~---------------|--------------------------------|
--------------------|--------------------------------|
--------------------|--------------------------------|
--------------------|--7/-6--------------------------|
--------------------|--5/-4--------------------------|
--------------------|--------0-0-0-0-0-0-0-0-0-0-0-0-|



------------------------------|--------------------------------|
------------------------------|--------------------------------|
------------------------------|--------------------------------|
--7/-6------5/-4--------------|--7/-6--------------------------|
--5/-4------3/-2--------------|--5/-4--------------------------|
--------0-0-------0-0-0-0-0-0-|--------0-0-0-0-0-0-0-0-0-0-0-0-|



-------------------------|-------------------------------|
-------------------------|-------------------------------|
-------------------------|-------------------------------|
--7/-6-----10------10----|--------------------------3----|
--5/-4-----8-------8-----|--------------------------3----|
--------0----------------|--3-3-3-3-3-3-3-3-3-3-3-3------|



------------------------------|-------------------------------|
------------------------------|-------------------------------|
------------------------------|-------------------------------|
------------------3------3----|--------------------------3----|
------------------3------3----|--------------------------3----|
--3-3-3-3-3-3-3-3----3-3------|--3-3-3-3-3-3-3-3-3-3-3-3------|



-------------------------------|-------------------------------|
-------------------------------|-------------------------------|
-------------------------------|-------------------------------|
------------------3------8--7--|--------------------------3----|
------------------3------6--5--|--------------------------3----|
--3-3-3-3-3-3-3-3----3-3-------|--3-3-3-3-3-3-3-3-3-3-3-3------|



------------------------------|-------------------------------|
------------------------------|-------------------------------|
------------------------------|-------------------------------|
------------------3------3----|--------------------------3----|
------------------3------3----|--------------------------3----|
--3-3-3-3-3-3-3-3----3-3------|--3-3-3-3-3-3-3-3-3-3-3-3------|



-------------------------------|----------------------------------|
-------------------------------|----------------------------------|
-------------------------------|----------------------------------|
------------------3------8--7--|----------------------------------|
------------------3------6--5--|----------------------------------|
--3-3-3-3-3-3-3-3----3-3-------|--7-7-7-7-7-7-7-7-7-7-7-7-7-7-7-7-|



----------------------------------|----------------------------------|
----------------------------------|----------------------------------|
----------------------------------|----------------------------------|
----------------------------------|----------------------------------|
--6-6-6-6-5-5-5-5-----------------|----------------------------------|
------------------5-5-5-5-8-8-8-8-|--7-7-7-7-7-7-7-7-7-7-7-7-7-7-7-7-|



----------------------------------|----------------------------------|
----------------------------------|----------------------------------|
----------------------------------|----------------------------------|
----------------------------------|----------------------------------|
--6-6-6-6-5-5-5-5-----------------|----------------------------------|
------------------5-5-5-5-8-8-8-8-|--7-7-7-7-7-7-7-7-7-7-7-7-7-7-7-7-|



----------------------------------|----------------------------------|
----------------------------------|----------------------------------|
----------------------------------|----------------------------------|
----------------------------------|----------------------------------|
--6-6-6-6-5-5-5-5-----------------|----------------------------------|
------------------5-5-5-5-8-8-8-8-|--7-7-7-7-7-7-7-7-7-7-7-7-7-7-7-7-|



----------------------------------|----------------------------------|
----------------------------------|----------------------------------|
----------------------------------|----------------------------------|
----------------------------------|----------------------------------|
--6-6-6-6-5-5-5-5-----------------|----------------------------------|
------------------5-5-5-5-8-8-8-8-|--0-0-0-0-0-0-0-0-0-0-0-0-0-0-0-0-|



----------------------------------|----------------------------------|
----------------------------------|----------------------------------|
----------------------------------|----------------------------------|
----------------------------------|----------------------------------|
----------------------------------|----------------------------------|
--0-0-0-0-0-0-0-0-0-0-0-0-0-0-0-0-|--0-0-0-0-0-0-0-0-0-0-0-0-0-0-0-0-|



----------------------------------|--------------------------------|
----------------------------------|--------------------------------|
----------------------------------|--------------------------------|
----------------------------------|--7/-6--------------------------|
----------------------------------|--5/-4--------------------------|
--0-0-0-0-0-0-0-0-0-0-0-0-0-0-0-0-|--------0-0-0-0-0-0-0-0-0-0-0-0-|



------------------------------|--------------------------------|
------------------------------|--------------------------------|
------------------------------|--------------------------------|
--7/-6------5/-4--------------|--7/-6--------------------------|
--5/-4------3/-2--------------|--5/-4--------------------------|
--------0-0-------0-0-0-0-0-0-|--------0-0-0-0-0-0-0-0-0-0-0-0-|



-------------------------|--------------------------------|
-------------------------|--------------------------------|
-------------------------|--------------------------------|
--7/-6-----10------10----|--7/-6--------------------------|
--5/-4-----8-------8-----|--5/-4--------------------------|
--------0----------------|--------0-0-0-0-0-0-0-0-0-0-0-0-|



------------------------------|--------------------------------|
------------------------------|--------------------------------|
------------------------------|--------------------------------|
--7/-6------5/-4--------------|--7/-6--------------------------|
--5/-4------3/-2--------------|--5/-4--------------------------|
--------0-0-------0-0-0-0-0-0-|--------0-0-0-0-0-0-0-0-0-0-0-0-|



---------------------------|--------------------------------|
---------------------------|--------------------------------|
---------------------------|--------------------------------|
--7/-6-----10------10--10/-|--9----------9/-10----------10/-|
--5/-4-----8-------8---8/--|--7----------7/-8-----------8/--|
--------0------------------|-----0-0-0-0--------0-0-0-0-----|



----------------------------------|--------------------------------|
----------------------------------|--------------------------------|
----------------------------------|--------------------------------|
--11--------------------------10/-|--9----------9/-10----------10/-|
--9---------------------------8/--|--7----------7/-8-----------8/--|
------0-0-0-0-0-0-0-0-0-0-0-0-----|-----0-0-0-0--------0-0-0-0-----|



----------------------------------|--------------------------------|
----------------------------------|--------------------------------|
----------------------------------|--------------------------------|
--11--------------------------10/-|--9----------9/-10----------10/-|
--9---------------------------8/--|--7----------7/-8-----------8/--|
------0-0-0-0-0-0-0-0-0-0-0-0-----|-----0-0-0-0--------0-0-0-0-----|



----------------------------------|--------------------------------|
----------------------------------|--------------------------------|
----------------------------------|--------------------------------|
--11--------------------------10/-|--9----------9/-10----------10/-|
--9---------------------------8/--|--7----------7/-8-----------8/--|
------0-0-0-0-0-0-0-0-0-0-0-0-----|-----0-0-0-0--------0-0-0-0-----|



----------------------------------|--------------------------------|
----------------------------------|--------------------------------|
----------------------------------|--------------------------------|
--11--------------------------10/-|--9----------9/-10----------10/-|
--9---------------------------8/--|--7----------7/-8-----------8/--|
------0-0-0-0-0-0-0-0-0-0-0-0-----|-----0-0-0-0--------0-0-0-0-----|



----------------------------------|--------------------------------|
----------------------------------|--------------------------------|
----------------------------------|--------------------------------|
--11----------11/-12----------10/-|--9----------9/-10----------10/-|
--9-----------9/--10----------8/--|--7----------7/-8-----------8/--|
------0-0-0-0---------0-0-0-0-----|-----0-0-0-0--------0-0-0-0-----|



----------------------------------|--------------------------------|
----------------------------------|--------------------------------|
----------------------------------|--------------------------------|
--11----------11/-12----------10/-|--9----------9/-10----------10/-|
--9-----------9/--10----------8/--|--7----------7/-8-----------8/--|
------0-0-0-0---------0-0-0-0-----|-----0-0-0-0--------0-0-0-0-----|



----------------------------------|--------------------------------|
----------------------------------|--------------------------------|
----------------------------------|--------------------------------|
--11----------11/-12----------10/-|--9----------9/-10----------10/-|
--9-----------9/--10----------8/--|--7----------7/-8-----------8/--|
------0-0-0-0---------0-0-0-0-----|-----0-0-0-0--------0-0-0-0-----|



-----------------------------|----------------------------------|
-----------------------------|----------------------------------|
-----------------------------|----------------------------------|
--11-------------------------|----------------------------------|
--9-----------2--------------|--4-4-4-4-4-4-4-4-4-4-4-4-4-4-4-4-|
------0-0-0-0-0--3--2--1--0--|--2-2-2-2-2-2-2-2-2-2-2-2-2-2-2-2-|



----------------------------------|----------------------------------|
----------------------------------|----------------------------------|
----------------------------------|----------------------------------|
--5-5-5-5/4-4/5-5/7-7-7-7---------|----------------------------------|
--3-3-3-3/2-2/3-3/5-5-5-5-5-5-5-5-|--4-4-4-4-4-4-4-4-4-4-4-4-4-4-4-4-|
--------------------------3-3-3-3-|--2-2-2-2-2-2-2-2-2-2-2-2-2-2-2-2-|



----------------------------------|----------------------------------|
----------------------------------|----------------------------------|
----------------------------------|----------------------------------|
--5-5-5-5/4-4/5-5/7-7-7-7---------|----------------------------------|
--3-3-3-3/2-2/3-3/5-5-5-5-5-5-5-5-|--4-4-4-4-4-4-4-4-4-4-4-4-4-4-4-4-|
--------------------------3-3-3-3-|--2-2-2-2-2-2-2-2-2-2-2-2-2-2-2-2-|



----------------------------------|----------------------------------|
----------------------------------|----------------------------------|
----------------------------------|----------------------------------|
--5-5-5-5/4-4/5-5/7-7-7-7---------|----------------------------------|
--3-3-3-3/2-2/3-3/5-5-5-5-5-5-5-5-|--4-4-4-4-4-4-4-4-4-4-4-4-4-4-4-4-|
--------------------------3-3-3-3-|--2-2-2-2-2-2-2-2-2-2-2-2-2-2-2-2-|



----------------------------------|----------------------------------|
----------------------------------|----------------------------------|
----------------------------------|----------------------------------|
--5-5-5-5/4-4/5-5/7-7-7-7---------|----------------------------------|
--3-3-3-3/2-2/3-3/5-5-5-5-5-5-5-5-|--4-4-4-4-4-4-4-4-4-4-4-4-4-4-4-4-|
--------------------------3-3-3-3-|--2-2-2-2-2-2-2-2-2-2-2-2-2-2-2-2-|



----------------------------------|----------------------------------|
----------------------------------|----------------------------------|
----------------------------------|----------------------------------|
--5-5-5-5/4-4/5-5/7-7-7-7---------|----------------------------------|
--3-3-3-3/2-2/3-3/5-5-5-5-5-5-5-5-|--4-4-4-4-4-4-4-4-4-4-4-4-4-4-4-4-|
--------------------------3-3-3-3-|--2-2-2-2-2-2-2-2-2-2-2-2-2-2-2-2-|



----------------------------------|----------------------------------|
----------------------------------|----------------------------------|
----------------------------------|----------------------------------|
--5-5-5-5/4-4/5-5/7-7-7-7---------|----------------------------------|
--3-3-3-3/2-2/3-3/5-5-5-5-5-5-5-5-|--4-4-4-4-4-4-4-4-4-4-4-4-4-4-4-4-|
--------------------------3-3-3-3-|--2-2-2-2-2-2-2-2-2-2-2-2-2-2-2-2-|



----------------------------------|----------------------------------|
----------------------------------|----------------------------------|
----------------------------------|----------------------------------|
--5-5-5-5/4-4/5-5/7-7-7-7---------|----------------------------------|
--3-3-3-3/2-2/3-3/5-5-5-5-5-5-5-5-|--4-4-4-4-4-4-4-4-4-4-4-4-4-4-4-4-|
--------------------------3-3-3-3-|--2-2-2-2-2-2-2-2-2-2-2-2-2-2-2-2-|



----------------------|-------------------|--------------------|
----------------------|-------------------|--------------------|
----------------------|-------------------|--------------------|
----------------------|-------------------|--------------------|
--4/---4/---4/---4/---|--5----------------|--4--4--------------|
--2/---2/---2/---2/---|--3----------------|--2--2--------------|



------------------||
------------------||
------------------||
------------------||
------------------||
------------------||
Thats it.

            
            
Suggest correction
Creating personal tab
Creating personal tab
You can edit any tab online and save it as your Personal.

You can edit, replace or remove any tab part or add personal notes – all changes will be seen only by you.

Personal tabs can be accessed anytime from any device, even offline.
Learn more »
comments
print report bad tab
guest
You may want to rate the tab now too:
select rating
Wanna post a correction for this tab? Suggest correction