Oops, an error
Loading. Please wait.

In A Gadda Da Vida tab

version 2
version 2

Whole song

Interactive

by Slayer
10,280 views 3 this week
no commentswrite comment
1 2 3 4 5
1 last vote to show rating
add to favorites
×
Save as Personal and add changes to this tab that will be seen only by you. Learn more ›
×
You can save this tab as Personal to edit and correct it or add notes. All changes will be seen only by you. Learn more »
launch autoscroll
font size
0
reset
how to read this tab
guitar tuner
edit
Autoscroll
slow
fast
+/-
esc
set tempo
stop
----------------------------------------------------------------------------
                           In A Gadda Da Vida - Slayer
----------------------------------------------------------------------------
Tabbed by: Brack


Gtr I (Eb Ab Db Gb Bb Eb) - 'Jeff Hannemen'
Gtr II (Eb Ab Db Gb Bb Eb) - 'Kerry King'

 Intro
  Brutal Stoner Metal Q=140
  E5
 4/4
  Gtrs I, II
  W          +W           +W           +W
|----------|------------|------------|--------|
|----------|------------|------------|--------|
|----------|------------|------------|--------|
|-2--------|-(2)--------|-(2)--------|-(2)----|
|-2--------|-(2)--------|-(2)--------|-(2)----|
|-0--------|-(0)--------|-(0)--------|-(0)----|


  E5
  PM------------------------------|
  E E E E E E E E   E E E E E E E E
|-----------------|-----------------|
|-----------------|-----------------|
|-----------------|-----------------|
|-----------------|-----------------|
|-2-2-2-2-2-2-2-2-|-2-2-2-2-2-2-2-2-|
|-0-0-0-0-0-0-0-0-|-0-0-0-0-0-0-0-0-|


  Q  Q   E E  E  E   +E  Q  Q  Q   E   Q  Q   E E  E  E   +E  Q  Q  Q   E
|------------------|-----------------|------------------|-----------------|
|------------------|-----------------|------------------|-----------------|
|------------------|-----------------|------------------|-----------------|
|------------------|-----9--8--7-----|------------------|-----9--8--7-----|
|-7--7--10-9----/7-|-(7)----------10-|-7--7--10-9----/7-|-(7)----------10-|
|------------10----|-----------------|------------10----|-----------------|


 4/4
  Gtr I
  Q  Q   E E  E  E   +E  Q  Q  Q   E   Q  Q   E E  E  E   +E  Q  Q  Q   E
|------------------|-----------------|------------------|-----------------|
|------------------|-----------------|------------------|-----------------|
|------------------|-----------------|------------------|-----------------|
|------------------|-----9--8--7-----|------------------|-----9--8--7-----|
|-7--7--10-9----/7-|-(7)----------10-|-7--7--10-9----/7-|-(7)----------10-|
|------------10----|-----------------|------------10----|-----------------|
|
| Gtr II
| Q  Q   E E  E  E   +E  Q  Q  Q   E   Q  Q   E E  E  E   +E  Q  Q  Q   E
|------------------|-----------------|------------------|-----------------|
|------------------|-----------------|------------------|-----------------|
|------------------|-----------------|------------------|-----------------|
|-------10-9-------|-----------------|-------10-9-------|-----------------|
|-7--7----------/7-|-(7)-9--8--7-----|-7--7----------/7-|-(7)-9--8--7-----|
|------------10----|--------------10-|------------10----|--------------10-|


   Verse
    $
    E5      G5F#E5      B5  Bb5 A5  G5  E5      G5F#E5      B5  Bb5 A5  G5
    Gtrs I, II
    PM----|     PM----|   PM  PM  PM    PM----|     PM----|   PM  PM  PM
    E E E E E E E E   E E E E E E E E   E E E E E E E E   E E E E E E E E
||------------------|-----------------|-----------------|-------------------
||o-----------------|-----------------|-----------------|------------------o
||------------------|-----------------|-----------------|-------------------
||------------------|-----------------|-----------------|-------------------
||o-2-2-2-2-5s4-2-2-|-2-9---8---7---5-|-2-2-2-2-5s4-2-2-|-2-9---8---7---5--o
||--0-0-0-0-3s2-0-0-|-0-7-0-6-0-5-0-3-|-0-0-0-0-3s2-0-0-|-0-7-0-6-0-5-0-3---


  $$
  E E  E E  E E E E   E  E E E E S S E  E
|-------------------|----------------------|
|-------------------|----------------------|
|-------------------|----------------------|
|-------------8-9-8-|-9-10-9-8-9-8h9p7-----|
|-7-9-10-9-10-------|------------------10\-|
|-------------------|----------------------|


   Chorus
    PM--------------------------------------------------------------|
    S S S S S S S S S S S S S S S S   S S S S S S S S S S S S S S S S
||----------------------------------|-----------------------------------||
||o---------------------------------|----------------------------------o||
||----------------------------------|-----------------------------------||
||----------------------------------|-----------------------------------||
||o---------------------------------|----------------------------------o||
||--5-5-5-5-5-5-5-5-5-5-5-5-5-5-5-5-|-2-2-2-2-2-2-2-2-2-2-2-2-2-2-2-2---||


                                                               To Coda
                                                               To Coda
    PM--------------------------------------------------------------|
    S S S S S S S S S S S S S S S S   S S S S S S S S S S S S S S S S
||----------------------------------|-----------------------------------||
||o---------------------------------|----------------------------------o||
||----------------------------------|-----------------------------------||
||----------------------------------|-----------------------------------||
||o---------------------------------|----------------------------------o||
||--7-7-7-7-7-7-7-7-7-7-7-7-7-7-7-7-|-4-4-4-4-4-4-4-4-4-4-4-4-4-4-4-4---||


  Gtr I
   ~~                              ~~~
   W           H..         +E      W            W
|-----------|-------------------|------------|--------|
|-----------|-------------------|------------|--------|
|-----------|-------------------|------------|--------|
|-17--------|-17b19r======(17)\-|-<4>--------|--------|
|-----------|-------------------|------------|--------|
|-----------|-------------------|------------|-19\----|
|
| Gtr II
|  W           W                   W            W
|-----------|-------------------|------------|--------|
|-----------|-------------------|------------|--------|
|-----------|-------------------|------------|--------|
|-----------|-------------------|------------|--------|
|-----------|-------------------|------------|--------|
|-----------|-------------------|------------|--------|


  ~~~~~~~~~~~~~~~~~~~~~~~~~~~~~~~~~~~~~~~
  W                   Q    Q   Q   Q
|------------------|--------------------|
|------------------|--------------------|
|------------------|--------------------|
|------------------|--------------------|
|-7----------------|--7----7---7---7----|
|------------------|--------------------|
|
| Q  Q   E E  E  E   +E  Q   Q   Q    E
|------------------|--------------------|
|------------------|--------------------|
|------------------|--------------------|
|------------------|-----9---8---7------|
|-7--7--10-9----/7-|-(7)-------------10-|
|------------10----|--------------------|


                           D.S. al Coda
 ~~~~~~~~~~~~~~~~~~~~~~~~
  Q  Q   Q    Q       Q    H.
|------------------|--------------------|
|------------------|--------------------|
|------------------|--------------------|
|------------------|--------------------|
|-7--7---7----7----|--7----7\-----------|
|------------------|--------------------|
|
| Q  Q   E E  E  E   +E  Q    Q  Q   E
|------------------|--------------------|
|------------------|--------------------|
|------------------|--------------------|
|------------------|-----9----8--7------|
|-7--7--10-9----/7-|-(7)------------10--|
|------------10----|--------------------|


  &
                                             \3_________|
   ~~                            ~~~
   W           H        H        W           H..       +E
|-----------|-----------------|------------|---------------|
|-----------|-----------------|------------|---------------|
|-----------|-----------------|------------|---------------|
|-17--------|-17b19r===17\----|------------|-4---------(4)-|
|-----------|-----------------|------------|---------------|
|-----------|-----------------|-<4>--------|---------------|
|
|  W           W                 W           W
|-----------|-----------------|------------|---------------|
|-----------|-----------------|------------|---------------|
|-----------|-----------------|------------|---------------|
|-----------|-----------------|------------|---------------|
|-----------|-----------------|------------|---------------|
|-----------|-----------------|------------|---------------|


                                       /1\                   \2____________|
  ~~~~~~~~~~~~~~~~~~~~~~~
  W                  +W                W                    +H..          +E
|------------------|-----------------|--------------------|-----------------
|------------------|-----------------|--------------------|-----------------
|------------------|-----------------|--------------------|-----------------
|------------------|-----------------|--------------------|-----------------
|-7----------------|-(7)-------------|--------------------|-----------------
|------------------|-----------------|-0------------------|-(0)-----------(0
|
| Q  Q   E E  E  E   +E  Q  Q  Q   E   Q    Q   E E  E  E   +E   Q  Q  Q   E
|------------------|-----------------|--------------------|-----------------
|------------------|-----------------|--------------------|-----------------
|------------------|-----------------|--------------------|-----------------
|------------------|-----9--8--7-----|--------------------|------9--8--7----
|-7--7--10-9----/7-|-(7)----------10-|-7----7--10-9----/7-|-(7)----------10-
|------------10----|-----------------|--------------10----|-----------------


   Solo Riff & Verse
                                                       D.S.S. al Dbl. Coda
    E5      G5F#E5      B5  Bb5 A5  G5  E5      G5F#E5      B5  Bb5 A5  G5
    Gtrs I, II
    PM----|     PM----|   PM  PM  PM    PM----|     PM----|   PM  PM  PM
    E E E E E E E E   E E E E E E E E   E E E E E E E E   E E E E E E E E   6x
||------------------|-----------------|-----------------|-------------------
||o-----------------|-----------------|-----------------|------------------o
||------------------|-----------------|-----------------|-------------------
||------------------|-----------------|-----------------|-------------------
||o-2-2-2-2-5s4-2-2-|-2-9---8---7---5-|-2-2-2-2-5s4-2-2-|-2-9---8---7---5--o
||--0-0-0-0-3s2-0-0-|-0-7-0-6-0-5-0-3-|-0-0-0-0-3s2-0-0-|-0-7-0-6-0-5-0-3---


  &&
  Gtr I
                                             \3_________|
   ~~                            ~~~
   W           H        H        W           H..       +E
|-----------|-----------------|------------|---------------|
|-----------|-----------------|------------|---------------|
|-----------|-----------------|------------|---------------|
|-17--------|-17b19r===17\----|------------|-4---------(4)-|
|-----------|-----------------|------------|---------------|
|-----------|-----------------|-<4>--------|---------------|
|
| Gtr II
|  W           W                 W           W
|-----------|-----------------|------------|---------------|
|-----------|-----------------|------------|---------------|
|-----------|-----------------|------------|---------------|
|-----------|-----------------|------------|---------------|
|-----------|-----------------|------------|---------------|
|-----------|-----------------|------------|---------------|


  ~~~~~~~~~~~~~~~~~~~~~~~~~~~~~~~~~~~~~~~
  Q  Q   Q    Q       Q    Q   Q   Q
|------------------|--------------------|
|------------------|--------------------|
|------------------|--------------------|
|------------------|--------------------|
|-7--7---7----7----|--7----7---7---7----|
|------------------|--------------------|
|
| Q  Q   E E  E  E   +E  Q   Q   Q    E
|------------------|--------------------|
|------------------|--------------------|
|------------------|--------------------|
|------------------|-----9---8---7------|
|-7--7--10-9----/7-|-(7)-------------10-|
|------------10----|--------------------|


 ~~~~~~~~~~~~~~~~~~~~~~~~~~~~~~~~~~~~
  Q  Q   Q    Q       Q    Q   Q   Q
|------------------|--------------------|
|------------------|--------------------|
|------------------|--------------------|
|------------------|--------------------|
|-7--7---7----7----|--7----7---7---7----|
|------------------|--------------------|
|
| Q  Q   E E  E  E   +E  Q   Q   Q    E
|------------------|--------------------|
|------------------|--------------------|
|------------------|--------------------|
|------------------|-----9---8---7------|
|-7--7--10-9----/7-|-(7)-------------10-|
|------------10----|--------------------|


                                        E5    G5F#D5E5/B
  Q  Q   E E  E  E   +E  Q  Q  Q   E    Q  Q  E E E E   W
|------------------|------------------|---------------|------*|
|------------------|------------------|---------------|------*|
|------------------|------------------|---------------|------*|
|------------------|-----9--8--7------|---------------|------*|
|-7--7--10-9----/7-|-(7)----------10\-|-2--2--5-4-5-7-|------*|
|------------10----|------------------|-0--0--3-2-5-7-|------*|
|
| Q  Q   E E  E  E   +E  Q  Q  Q   E    Q  Q  E E E E   W
|------------------|------------------|---------------|------*|
|------------------|------------------|---------------|------*|
|------------------|------------------|---------------|------*|
|-------10-9-------|------------------|---------------|------*|
|-7--7----------/7-|-(7)-9--8--7------|-2--2--5-4-5-7-|------*|
|------------10----|--------------10\-|-0--0--3-2-5-7-|------*|

Suggest correction
Creating personal tab
Creating personal tab
You can edit any tab online and save it as your Personal.

You can edit, replace or remove any tab part or add personal notes – all changes will be seen only by you.

Personal tabs can be accessed anytime from any device, even offline.
Learn more »
Give kudos to tab author, rate the tab!
1 2 3 4 5
comments
print report bad tab
guest
You may want to rate the tab now too:
select rating
Wanna post a correction for this tab? Suggest correction