Oops, an error
Loading. Please wait.

Postmortem Drum Tab

version 1
version 1

Whole song

Interactive

756 views 1 this week
no commentswrite comment
1 2 3 4 5
please rate
add to favorites
launch autoscroll
font size
0
reset
guitar tuner
Tab Pro tools
  • play this tab
  • loop segment
  • change instrument
  • show fretboard
  • metronome
×
Best way to learn
"Postmortem"
Autoscroll
slow
fast
+/-
esc
set tempo
stop
Contributor

Slayer - Postmortem				 |
-------------------				 |
Album - Reign In Blood				 |
Drummer - Dave Lombardo				 |
						 |
_________________________________________________|

3=triple note

Hi-hat open throughout


Intro

H  -------------X---|
		     _______________	 ___________________________
  |----repeat-2x----|1.3.	    |	|2.			    |
C  -x---------------|-x---x---------|	|-x---x---------x-----------|
T1 -----o-------o---|---------------| 6	|------------------ttt------|
T2 -----o-------o---|---------------|---|---------------------ttt---|
T3 -----------------|---------------| 4 |------------------------ttt|
S  -----------------|---------fttttt|	|---------fttttt------------|
B  -o---------------|-o---o---------|	|-o---o---------o-----------|
		    ( 1 + 2 + 3tl4tl)	( 1 + 2 + 3tl4tl5tl+tl6tl+tl)

C  -#-------#-------|
B  -o-------o-------|

(Triplets)
		|--repeat-5x--|
C  -x-x---------|-------------|-------------|
R  ----xxxxxxxxx|-xxxxxxxxxxxx|-xxxxxxxxx---|
S  ----o-----o--|----o-----o--|----o-----ooo|
B  -o-o---o-----|-o-----o-----|-o-----o-----|


1st Verse
		|--repeat-1x--|
C  -x-x---------|-------------|-------------|
H  ----x--x--x--|-x--x--x--x--|-x--x--x--x--|
S  ----o-----o--|----o-----o--|----o-----o--|
B  -o-o---o-----|-o-----o-----|-o-----o---o-|

H  -x--x--x--x--|-x--x--x--x--|-x--x--x--x--|-x--x--x--x--|
S  ----o-----o--|----o-----o--|----o-----o--|----o-----o-3|
B  -o-o---o---oo|-o-----o-----|-o-o---o---oo|-o-----o-----|


Bridge			       ___________________________
			      |1.			  |
C  -x-----------|-------------|-x-----------|-------x-----|
R  ----xx-xxxxxx|-xxxxxxxxxxxx|----xxxxxxxxx|-xxxxxx------|
T1 -------------|-------------|-------------|--------3----|
T2 -------------|-------------|-------------|----------o--|
T3 -------------|-------------|-------------|------------3|
S  ----o-----o--|----o-----o--|----o-----o--|----o--------|
B  -o-----o-----|-o-----o-----|-o-----o-----|-o-----o-----|
   ___________________________
  |2.			      |
C  -------------|-------x-----|
R  -xxxxxxxxxxxx|-xxxxxx------|
S  ----o-----o--|----o----oooo|
B  -o-----o-----|-o-----o-----|


Interlude

C  -x-x---------|-------------|-------------|-------------|
R  ----xxxxxxxxx|-xxxxxxxxxxxx|-xxxxxxxxxxxx|-xxxxxxxxx---|
S  ----o-----o--|----o-----o--|----o-----o--|----o-----ooo|
B  -o-o---o-----|-o-o---o---oo|-o-----o-----|-o-o-o-o-o---|

  		|--repeat-1x--|
C  -x-x---------|-------------|-------x-----|
R  ----xxxxxxxxx|-xxxxxxxxxxxx|-xxxxxx------|
T1 -------------|-------------|--------3----|
T2 -------------|-------------|----------3--|
T3 -------------|-------------|------------3|
S  ----o-----o--|----o-----o--|----o--------|
B  -o-o---o-----|-o-----o-----|-o-----o-----|


2nd Verse
		|--repeat-1x--|
C  -x-x---------|-------------|-------------|
H  ----x--x--x--|-x--x--x--x--|-x--x--x-----|
T2 -------------|-------------|-----------oo|
S  ----o-----o--|----o-----o--|----o-----f--|
B  -o-o---o-----|-o-----o-----|-o-----o-----|

C  -x-x---------|-------------|-------------|-x-----------|
H  ----x--x--x--|-x--x--x--x--|-x--x--x--x--|----x--x-----|
T1 -------------|-------------|-------------|----------o--|
T2 -------------|-------------|-------------|-----------d-|
T3 -------------|-------------|-------------|------------o|
S  ----o-----o--|----o-----o--|----o-----o--|----o---3----|
B  -o-o---o-----|-o-----o-----|-o-----o---oo|-o-----o-----|


Bridge

C  -x-----------|-------------|-x-----------|-------------|
R  ----xxxxxxxxx|-xxxxxxxxxxxx|----xxxxxxxxx|-xxxxxxxxxxxx|
S  ----o-----o--|----o-----o--|----o-----o--|----o-----o--|
B  -o-----o-----|-o-----o-o---|-o-----o-----|-o---o-o-o-o-|

C  -x-----------|-------------|-x-----------|-------x-----|
R  ----xxxxxxxxx|-xxxxxxxxxxxx|----xxxxxxxxx|-xxxxxx------|
S  ----o-----o--|----o-----o-o|----o-----o--|----o---ooooo|
B  -o-----o-----|-o---ooo-o---|-o-----o-----|-o-----o-----|


Interlude

  |----repeat-2x----|
C  -x---------------|-x---x---------|
S  -----o-------o---|---------fttttt|
FT -----o-------o---|---------------|
B  -o---------------|-o---o---------|
		    ( 1 + 2 + 3tl4tl)
		     ________________	  ___________________________
		    |1.		     |	 |2.			     |
C  -x---------------|-x--------------|	 |-x---x---------x-----------|
T1 -----------------|----------------|	 |------------------ttt------|
T2 -----------------|----------------| 6 |---------tttttt------ttt---|
T3 -----------------|----------------|---|------------------------ttt|
S  -----o-------o---|-----ttt----o---| 4 |---------------------------|
FT -----o-------o---|-----ttt----o---|	 |---------------------------|
B  -o---------------|-o--------------|	 |-o---o---------o-----------|
		    ( 1 + 2tl3 + 4 + )	 ( 1 + 2 + 3tl4tl5tl+tl6tl+tl)
   _______________________________________________
  |3.--repeat-1x----|				  |
C  -x---------------|-x---x---------|-#-----#-----|
S  -----o-------o---|---------fttttt|-------------|
FT -----o-------o---|---------------|-------------|
B  -o---------------|-o---o---------|-t-----t-----|
		    ( 1 + 2 + 3tl4tl| 1tl2tl3tl4tl)

C  -x---------------|-----------------|-#---------------|-----------------|
T1 -----------------|---------ggg-----|-----------------|-oo-----oooo-----|
T2 -----------------|-------------gggg|-----------------|------------ooooo|
S  -----------------|-----------------|-----------------|---ooooo---------|
B  -o---o---o---o---|-o---o---o---o---|-o---o---o---o---|-o---o---o---o---|
		     _________________ _________________
		    |1.		      |2.		|
C  -x---------------|---------------x-|-------x---------|
R  ---x-x-x-x-x-x-x-|-x-x-x-x-x-x-x---|-x-x-x-----------|
S  ---o---o---o---o-|---o---o---o---o-|---o---o-ddddddo-|
B  -o---oo--o---oo--|-o---oo--o---oo--|-o---oo----------|
		     _________________ _________________
		    |1.		      |2.		|
C  -#---------------|-----------------|-----------------|
H  -----------------|-----------------|-----#-----------|
T1 -----------------|-------------d---|----------ooo----|
T2 -----------------|-----------------|-------------oo--|
T3 -----------------|-----------------|---------------oo|
S  -----------------|---------dd------|-f--o-oooo-------|
B  -o---o---o---o---|-o---o---o---o---|-o---o---o---o---|

C  -x---------------|-----------------|
R  ---x-x-x-x-x-x-x-|-x-x-x-x-x-x-x-x-| Repeat
S  ---o---o---o---o-|---o---o---o---o-|   1x
B  -o---oo--o---oo--|-o---oo--o---oo--|

C  -x---------------|-----------------|-x---------------|-----------------|
R  ---x-x-x-x-x-x-x-|-x-x-x-x-x-x-x-x-|---x-x-x-x-x-x-x-|-x-x-x-x-x-x-x-x-|
S  ---o---o---o---o-|---o---o---o---o-|---o---o---o---o-|---o---o---o---o-|
B  -o--ooooooooooooo|-oooooooooooooooo|-oooooooooooooooo|-oooooooooooooo--|


Break

C  -x-------------xx|-xxxx------------|	  |---------------------|
T1 -----------------|---------oooo----|	5 |---------------------|
T2 -----------------|-------------oooo|---|-oooooo-------------d|
T3 -----------------|-----------------| 4 |-------ooooooooo-----|
B  -o---------------|-----------------|	  |---------------------|


Interlude
		    |----repeat-1x----|
T1 -----------------|-----------------|---------oo--o---|
S  -----------------|-----------------|-----------oo--o-|
FT -f---------------|-----------------|-----------------|
B  -o---------------|-----------------|-----------------|
		     _________________ _________________
		    |1.		      |2.		|
C  -x---------------|-----------------|-----------------|
R  ---x-x-x-x-x-x-x-|-x-x-x-x-x-x-x-x-|-x-x-x-x-x-x-----|
S  ---o---o---o---o-|---o---o---o---o-|---o---o---o-ooo-|
B  -o--oo---o--oo---|-o---oo--o---oo--|-o---oo--o-------|
				       _________________ _________________
		    |----repeat-1x----|1.		|2.		  |
C  -x---------------|-----------------|-----------------|-----------------|
H  ---x-x-x-x-x-x-x-|-x-x-x-x-x-x-x-x-|-x-x-x-x-x-x-x-x-|-x-x-------------|
T1 -----------------|-----------------|-----------------|---------oooo--o-|
S  ---o---o---o---o-|---o---o---o---o-|---o---o---o---o-|---o-oooo----o---|
B  -o---oo--o---oo--|-o---oo--o---oo--|-o---oo--o---oo--|-o---------------|
		     _________________ _________________ _________________
		    |1.		      |2.		|3.		  |
C  -x---------------|-c---------------|-c-----x---------|-c---------------|
R  ---x-x-x-x-x-x-x-|---x-x-x-x-x-----|---x-------------|---x-x-x-x-x-----|
T1 -----------------|-----------------|------------oo---|-----------------|
T2 -----------------|-----------------|--------------oo-|-----------------|
T3 -----------------|-----------------|----------------o|-----------------|
S  ---o---o---o---o-|---o---o---o-ooo-|---o---o-ooo-----|---o---o---o-o-o-|
B  -o---oo--o---oo--|-o---oo--o-------|-o---------------|-o---oo--o-------|
   _________________
  |4.		    |
C  -c---------------|
T1 ---ooo-o---------|
T2 ---------oooo----|
T3 -------------oo--|
T4 ---------------oo|
B  -o---------------|
		     _________________ _________________ _________________
		    |1.		      |2.		|3.		  |
C  -x---------------|-----------------|-----------------|-x---------------|
H  ---x-x-x-x-x-x-x-|-x-x-x-x-x-x-x-x-|-x-x-x-x---------|---x-x-x-x-x-x-x-|
T1 -----------------|-----------------|-------------oo--|-----------------|
T2 -----------------|-----------------|---------------oo|-----------------|
S  ---o---o---o---o-|---o---o---o---o-|---o---o-oooo----|---o---o---o---o-|
B  -o---oo--o---oo--|-o---oo--o---oo--|-o---oo----------|-o---oo--o---oo--|
   _________________
  |4.		    |
C  -#---------------|
S  -------------f---|
B  -o---------o-----|
		     _________________ _________________ _________________
		    |1.		      |2.		|3.		  |
C  -x---------------|-x---------------|-c-----x---------|-x---------------|
R  ---x-x-x-x-x-x-x-|---x-x-x-x-x-----|---x-------------|---x-x-x-x-x-x-x-|
T1 -----------------|-----------------|-------------ooo-|-----------------|
S  ---o---o---o---o-|---o---o---o-ooo-|---o---o-ooo-----|---o---o---o---o-|
B  -o---oo--o---oo--|-o---oo--o-------|-o---------------|-o---oo--o---oo--|

C  -x-------x---x---|-x---x---x---x---|-x-------xxxxxxxx|-xxxxxxxxxxxxxxxx|
R  ---x-x-x---------|-----------------|-----------------|-----------------|
S  ---o---o---o---o-|---o---o---o---o-|-----------------|-----------------|
B  -o---oo--o---o---|-o---o---o---o---|-o---------------|-----------------|

Seque to "Raining Blood"


END
	
comments
We did not receive enough feedback on this tab! Please rate:
print report bad tab
1 2 3 4 5
I want to post or [tab]
guest
You may want to rate the tab now too:
select rating
Please do not post tabs as comments. Select "correction" instead!