Oops, an error
Loading. Please wait.

Postmortem tab

version 2
version 2

Whole song

Interactive

by Slayer
11,317 views 3 this week
1 commentread comment
1 2 3 4 5
1 last vote to show rating
add to favorites
×
Save as Personal and add changes to this tab that will be seen only by you. Learn more ›
×
You can save this tab as Personal to edit and correct it or add notes. All changes will be seen only by you. Learn more »
launch autoscroll
font size
0
reset
how to read this tab
guitar tuner
backing track
0:00
0:00
edit
Autoscroll
slow
fast
+/-
esc
set tempo
stop
Difficulty
intermediate
 POSTMORTEM V1.1

 By SLAYER
 
 Tune Down 1/2 Step

 .=Palm Mute
 
 
 RIFF 1 INTRO x1
 
|--------------------------------------------------------------|
|--------------------------------------------------------------|
|--------------------------------------------------------------|
|-9---------10\9---9/10---13\12---------10\9---9/10---13\12----|
|-7----------8\7---7/-8---11\10----------8\7---7/-8---11\10----|
|-0----0-0-0-----0------0----------0-0-0-----0------0----------|
       . . .     .      .          . . .     .      .
 
 
|---------------------------|-------------|
|---------------------------|-------------|
|---------------------------|-------------|
|------10\9---9/10---8--8---|-------------|
|-------8\7---7/-8---6--6---|-8-6---6-5---|
|-0-0-0-----0------0--------|-----7-----7-|
  . . .     .      .          . . . . . .
 
 
|--------------------------------------------------------------|
|--------------------------------------------------------------|
|--------------------------------------------------------------|
|-9---------10\9---9/10---13\12---------10\9---9/10---13\12----|
|-7----------8\7---7/-8---11\10----------8\7---7/-8---11\10----|
|-0----0-0-0-----0------0----------0-0-0-----0------0----------|
       . . .     .      .          . . .     .      .
 
 
|---------------------------|-------------|-------------|
|---------------------------|-------------|-------------|
|---------------------------|-------------|-------------|
|------10\9---9/10---8--8---|-------------|-3-----------|
|-------8\7---7/-8---6--6---|-8-6---6-5---|---5-4-3-----|
|-0-0-0-----0------0--------|-----7-----7-|---------5-4-|
  . . .     .      .          . . . . . .   . . . . . .
 
 
|--------------------------------------------------------------|
|--------------------------------------------------------------|
|--------------------------------------------------------------|
|-9---------10\9---9/10---13\12---------10\9---9/10---13\12----|
|-7----------8\7---7/-8---11\10----------8\7---7/-8---11\10----|
|-0----0-0-0-----0------0----------0-0-0-----0------0----------|
       . . .     .      .          . . .     .      .
 
 
|---------------------------|-------------|-------------|-------------|
|---------------------------|-------------|-------------|-------------|
|---------------------------|-------------|-------------|-------------|
|------10\9---9/10---8--8---|-------------|-3-----------|-2-----------|
|-------8\7---7/-8---6--6---|-8-6---6-5---|---5-4-3-----|---4-3-2-----|
|-0-0-0-----0------0--------|-----7-----7-|---------5-4-|---------4-3-|
  . . .     .      .          . . . . . .   . . . . . .   . . . . . .
 
 
 
 RIFF 2 VERSE x4
 
|-------------------------------------------------|
|-------------------------------------------------|
|-------------------------------------------------|
|-------------------------------------------------|
|-2---3-------------------2---3-------------------|
|-0---1-0-0-0-0-0-0-0-0-0-0---1-0-0-0-0-0-0-0-0-0-|
        . . . . . . . . .       . . . . . . . . .
 
 
|-------------------------------------------------------------------------|
|-------------------------------------------------------------------------|
|-------------------------------------------------------------------------|
|-------------------------------------------------------------------------|
|-2---3-------------------2-3-3-3-6-6-6-5-5-5-3-3-2---3-------------------|
|-0---1-0-0-0-0-0-0-0-0-0-0-1-1-1-4-4-4-3-3-3-1-1-0---1-0-0-0-0-0-0-0-0-0-|
        . . . . . . . . .                               . . . . . . . . .
 
 
 
 RIFF 3 BRIDGE SLOW x2
 
|-----------------------------------------------------|
|-----------------------------------------------------|
|-----------------------------------------------------|
|-----------------------------------------------------|
|-6-6-6-6-6-6-5-5-5-5-8-8-8-8-4-4-4-4-4-4-4-4-4-4-4-4-|
|-4-4-4-4-4-4-3-3-3-3-6-6-6-6-2-2-2-2-2-2-2-2-2-2-2-2-|
  . . . . . . . . . . . . . . . . . . . . . . . . . .
 
 
|-----------------------------------------------------|
|-----------------------------------------------------|
|-----------------------------------------------------|
|-----------------------------------------------------|
|-6-6-6-6-6-6-5-5-5-5-8-8-8-8-9-9-9-9-9-9-9-9-9-9-9-9-|
|-4-4-4-4-4-4-3-3-3-3-6-6-6-6-7-7-7-7-7-7-7-7-7-7-7-7-|
  . . . . . . . . . . . . . . . . . . . . . . . . . .
 
 
 
 RIFF 2 VERSE x2
 
 
 RIFF 2A VERSE VARIATION x2
 
|-------------------------------------------------|
|-------------------------------------------------|
|-------------------------------------------------|
|-------------------------------------------------|
|-2---3-------------------2---3-------------------|
|-0---1-0-0-0-0-0-0-0-0-0-0---1-0-0-0-0-0-0-0-0-0-|
        . . . . . . . . .       . . . . . . . . .
 
 
|-------------------------------------------------|
|-------------------------------------------------|
|-------------------------------------------------|
|-------------------------3-----------2-----------|
|-2---3---------------------5-4-3-------4-3-2-----|
|-0---1-0-0-0-0-0-0-0-0-0---------5-4---------4-3-|
        . . . . . . . . . . . . . . . . . . . . .
 
 
 
 RIFF 3 BRIDGE x2
 
 RIFF 1 INTRO x1
 
 
 RIFF 4 INTERLUDE x2
 
|-----------------|-----------------|
|-----------------|-----------------|
|-----------------|-----------------|
|-----------------|-------------7-6-|
|---8-7-6-----7-6-|---8-7-6-5-4-----|
|-0-------5-4-----|-0---------------|
  . . . . . . . .   . . . . . . . .
 
 
 RIFF 4A INTERLUDE x2
 
|-----------------|-----------------|
|-----------------|-----------------|
|-----------------|-------------9-8-|
|--10-9-8-----9-8-|--10-9-8-7-6-7-6-|
|---8-7-6-7-6-7-6-|---8-7-6-5-4-----|
|-0-------5-4-----|-0---------------|
  .                 .
 
 
 RIFF 4 INTERLUDE x2
 
 RIFF 4A INTERLUDE x4
 
 
 FILL 1
 
|---------------------------------|
|---------------------------------|
|---------------------------------|
|---------------------------------|
|-6666666666666666----------------|
|-4444444444444444----------------|
 
 
 RIFF 3A INTO BRIDGE FAST
 
|KING  x1
|----------------------------------|----------------------------------|
|----------------------------------|----------------------------------|
|----------------------------------|----------------------------------|
|----------------------------------|----------------------------------|
|-6--------------------------------|-------------------------x\\\\\\--|
|-4--------------------------------|-------------------------x\\\\\\--|
|  
|
|HANNEMAN x1
|----------------------------------|----------------------------------|
|----------------------------------|----------------------------------|
|----------------------------------|----------------------------------|
|----------------------------------|----------------------------------|
|-----------------11111111---------|-----------------1111111122222222-|
|-4444444433333333--------22222222-|-4444444433333333-----------------|
  ................................   ................................
 
 
 
 RIFF 3B BRIDGE FAST x3
 
|----------------------------------|----------------------------------|
|----------------------------------|----------------------------------|
|----------------------------------|----------------------------------|
|----------------------------------|----------------------------------|
|-----------------11111111---------|-----------------1111111122222222-|
|-4444444433333333--------22222222-|-4444444433333333-----------------|
  ................................   ................................
 
 
 
 RIFF 5 OUTRO x2
 
|----------------------------------|----------------------------------|
|----------------------------------|----------------------------------|
|----------------------------------|----------------------------------|
|----------------------------------|----------------------------------|
|---------555555554444444433333333-|-----------------2222222211111111-|
|-22222222-------------------------|-2222222233333333-----------------|
  ................................   ................................
 
 
 
 RIFF 3C BRIDGE FAST x1
 
|----------------------------------|----------------------------------|
|----------------------------------|----------------------------------|
|----------------------------------|----------------------------------|
|----------------------------------|----------------------------------|
|-----------------11111111---------|-----------------1111111122222222-|
|-4444444433333333--------22222222-|-4444444433333333-----------------|
  ................................   ................................
 
 
|----------------------------------|----------------------------------|
|----------------------------------|----------------------------------|
|----------------------------------|----------------------------------|
|----------------------------------|-----------------3----------------|
|-----------------11111111---------|-----------------1----------------|
|-4444444433333333--------22222222-|-4444444433333333-----------------|
  ................................   ................ x
 
 
 
 RIFF 5A OUTRO x1
 
|----------------------------------|----------------------------------|
|----------------------------------|----------------------------------|
|----------------------------------|----------------------------------|
|----------------------------------|----------------------------------|
|---------555555554444444433333333-|-----------------2222222211111111-|
|-22222222-------------------------|-2222222233333333-----------------|
  ................................   ................................
 
 
|----------------------------------|----------------------------------|
|----------------------------------|----------------------------------|
|----------------------------------|----------------------------------|
|----------------------------------|-----------------4444444433333333-|
|---------555555554444444433333333-|-----------------2222222211111111-|
|-22222222-------------------------|-2222222233333333-----------------|
  ................................   ................
 
 
 
 FILL 2 END
 
|----------|
|----------|
|----------|
|----------|
|-2--------|
|-0--------|
 
 
 
Suggest correction
Creating personal tab
Creating personal tab
You can edit any tab online and save it as your Personal.

You can edit, replace or remove any tab part or add personal notes – all changes will be seen only by you.

Personal tabs can be accessed anytime from any device, even offline.
Learn more »
Give kudos to tab author, rate the tab!
1 2 3 4 5
comments
print report bad tab
1 comment total.
0 reply
rabbitrainbows 10 Jul 24, 2015 04:59 PM, edited at 09:00 pm

Yay! An easy tab for once. Great job.

guest
Wanna post a correction for this tab? Suggest correction