Oops, an error
Loading. Please wait.

Pride In Prejudice Tab

1,000 views 150 this week
no commentswrite comment
1 2 3 4 5
x 4
add to favorites
launch autoscroll
font size
0
reset
how to read this tab
guitar tuner
Autoscroll
slow
fast
+/-
esc
set tempo
stop
Help us to improve Ultimate-Guitar.com Take our survey!
×
Author
Difficulty
Tuning
advanced
B F# B E G# C#
About this tab version
At the moment this is the only tab for this song. Was this info helpful? Yes No
This song is in drop b
S= slide
I could not find any tabs for this song so feel free to correct my mistakes.

Intro                                                           3X
C#- |-----------|-------------------------------------------------|--------------------------------------|
G# -|-----------|-------------------------------------------------|--------------------------------------|
E - |-----------|-------------------------------------------------|--------------------------------------|
B - |-----0-----|---------0--------2----3----4---3---2-------0----|------------0------2---3---4---3---2--|
F#- |-----0-----|---------0--------2----3----4---3---2-------0----|------------0------2---3---4---3---2--|
B - |-----0-----|---------0--------2----3----4---3---2-------0----|------------0------2---3---4---3---2--|
                                                                        3X
C#- |--------------------------------------------------------------------|--|
G#  |--------------------------------------------------------------------|--|
E - |-------------------------7-------10------9--------------------------|--|
B - |------0-------0----------7---S---10--S---9------0-----2----3----4---|--|
F#- |------0-------0----------5--------8------7------0-----2----3----4---|--|
B - |------0-------0---------------------------------0-----2----3----4---|--|
           Verse

C#- |----------------------------------------------------------------------------------------------|
G# -|----------------------------------------------------------------------------------------------|
E - |----------------------------------------------------------------------------------------------|
B - |--------0------2----3----4---3---2---0----------------------0-----2---3----4----3----2-----0--|
F#- |--------0------2----3----4---3---2---0----------------------0-----2---3----4----3----2-----0--|
B - |--------0------2----3----4---3---2---0----------------------0-----2---3----4----3----2-----0--|
                                   You made your choice
  I’ll take my stand


C#- |-----------------------------------------------------------------------------------------|
G# -|-----------------------------------------------------------------------------------------|
E - |-----------------------------------------------------------------------------------------|
B - |--------0------2----3----4---3---2---0-----------------0-----2---3----4----3----2-----0--|
F#- |--------0------2----3----4---3---2---0-----------------0-----2---3----4----3----2-----0--|
B - |--------0------2----3----4---3---2---0-----------------0-----2---3----4----3----2-----0--|
                                         Your life story in my bloodstained hands
                                                                        4x
C#- |--------------------------------------------------------------------|--------------
G#  |--------------------------------------------------------------------|--------------
E - |-------------------------7-------10------9--------------------------|--------------
B - |------0-------0----------7---S---10---S--9------0-----2----3----4---|--------------
F#- |------0-------0----------5--------8------7------0-----2----3----4---|--------------
B - |------0-------0---------------------------------0-----2----3----4---|--------------

                          Pride in prejudice
                          Don’t give me that power bullshit
                          Pride in prejudice
                          One gunshot sets the precedence
                                                                                   4x
C#- |------------------------------------------------------------------------------|--|
G# -|------------------------------------------------------------------------------|--|
E - |------------------------------------------------------------------------------|--|
B - |---------------7----------8---9--10------------10--------12-----10-------7----|--|
F#- |---------------7----------8---9--10------------10--------12-----10-------7----|--|
B - |---------------7----------8---9--10------------10--------12-----10-------7----|--|


                     Abuse of power, civil unrest
                     Money in blood is of no significance
                     Inner rage waiting to ignite
                     Blood of the innocents unites
This is pretty much the whole song
There are 3 parts in still trying trying to figure out I will put it on when its done
Suggest correction
comments
print report bad tab
guest
You may want to rate the tab now too:
select rating
Wanna post a correction for this tab? Suggest correction