Oops, an error
Loading. Please wait.
We have an official Raining Blood tab made by UG professional guitarists. Check out the tab »
×
by Slayer
133,947 views 102 this week
12 commentsread comments
1 2 3 4 5
x 29
add to favorites
×
Save as Personal and add changes to this tab that will be seen only by you. Learn more ›
×
You can save this tab as Personal to edit and correct it or add notes. All changes will be seen only by you. Learn more »
launch autoscroll
font size
0
reset
how to read this tab
guitar tuner
backing track
0:00
0:00
edit
Autoscroll
slow
fast
+/-
esc
set tempo
stop
Author
Unregistered
Ok this is my first tab ever ok and I've only got the first bit figured out but this is 
awesome song and I found out a way to play the intro easily. This tab uses regular tuning.

[Intro]
e|----------------------------------------------------------------|
B|----------------------------------------------------------------|
G|----------------------------------------------------------------|
D|----------------------------------------------------------------|X2
A|------------13-14-13----12-11----11-10--------------------------|
E|---0-0-0-12----------12-------12--------------------------------|

Then

e|----------------------------------------------------------------|
B|----------------------------------------------------------------|
G|----------------------------------------------------------------|
D|------------13-14-13----12-11---11-10---------------------------|X2
A|----------------------------------------------------------------|
E|---0-0-0-12----------12-------12--------------------------------|

Then

e|------------------------------------------------------------------|
B|------------------------------------------------------------------|
G|------------------------------------------------------------------|
D|----------------------------------------------------------3-2-----|X2
A|--------------------------------------------------------4-----3-2-|
E|--000-000-000-000-000-000-000-000-000-000-000-000-0-2-4-----------|

Then

e|-----------------------------------------------------------------|
B|-----------------------------------------------------------------|
G|-----------------------------------------------------------------|
D|-----------------------------------------------------------------|As Many
A|-----------------------------------------------------------------|Times As
E|-5-3-2-0-6-4-3-0-------------------------------------------------|Needed

 So that's it for now. For any comments or questions email me at toddjjhall@sympatico.ca
Suggest correction
Creating personal tab
Creating personal tab
You can edit any tab online and save it as your Personal.

You can edit, replace or remove any tab part or add personal notes – all changes will be seen only by you.

Personal tabs can be accessed anytime from any device, even offline.
Learn more »
comments
print report bad tab
12 comments total. Showing first comments.
-2 reply
necromaniac 16 Feb 10, 2008 03:17 PM

dude your wrong, i mean really wrong and way off with begining

0 reply
guitargod43 10 Feb 11, 2008 04:18 PM

Yo man this is Todd, the guy that did the tab, and i started at the part where the guitar starts and not the little lightning parts at the start alright . Also i did screw up at the part where the 3 0's on low e come in it should be X4 instead of X2 cuz i did this tab off of memory.

0 reply
llamalord1 10 Feb 23, 2008 10:36 AM

not bad if u do half step down 4 *

guest
Wanna post a correction for this tab? Suggest correction