Oops, an error
Loading. Please wait.
We have an official Raining Blood tab made by UG professional guitarists. Check out the tab »
×
by Slayer
32,215 views 15 this week
3 commentsread comments
1 2 3 4 5
x 8
add to favorites
×
Save as Personal and add changes to this tab that will be seen only by you. Learn more ›
×
You can save this tab as Personal to edit and correct it or add notes. All changes will be seen only by you. Learn more »
launch autoscroll
font size
0
reset
how to read this tab
guitar tuner
backing track
0:00
0:00
edit
Autoscroll
slow
fast
+/-
esc
set tempo
stop
-------------------------------------------------------------------------------
                             Raining Blood Solo - Slayer
-------------------------------------------------------------------------------
Tabbed by:
thezohan

Tuning: E Flat Standard
There’s no specific timing, so you’ll just have to figure out when you hit each note.
I figured it out on acoustic guitar, so cut me some slack. I’ll tab the cool intro thing later.
()-divebomb with whammy
*-Natural harmonic
/-slide up to note    
                         Note: the number of times the note is written is just an
Approximation, everything is just picked really fast.

|-17-17-17-17-17~~~----------------/17-17-18-18-0-0---/17-17-18-18-0-0---/17-17-18-18-0-0—(22)-|
|----------------------------------------------------------------------------------------------|
|---------------------14b16~~~~----------------------------------------------------------------|
|----------------------------------------------------------------------------------------------|
|----------------------------------------------------------------------------------------------|
|----------------------------------------------------------------------------------------------|

|-/12-12-/13-13-/15-15-/17-17-/18-18-/20-20-/12-12-/13-13-/15-15-/17-17-/18-18-/20-20-22~~~|
|-------------------------------------------------------------------------------------------|
|-------------------------------------------------------------------------------------------|
|-------------------------------------------------------------------------------------------|
|-------------------------------------------------------------------------------------------|
|-------------------------------------------------------------------------------------------|

|-20b22r20b22r20b22r20~~---22b24r22b24r22b24r22b24r22b24~~~~~~---|
|----------------------------------------------------------------|
|----------------------------------------------------------------|
|----------------------------------------------------------------|
|----------------------------------------------------------------|
|----------------------------------------------------------------|

|-/19-19-19-0-0-0-/19-19-19-0-0-0-/19-19-19-0-0-0-20b23~~~~~~~~~~~~~~---|
|-----------------------------------------------------------------------|
|-----------------------------------------------------------------------|
|-----------------------------------------------------------------------|
|-----------------------------------------------------------------------|
|-----------------------------------------------------------------------|

|----------5*---------4*----------------------------|
|-----------------5*---------4*-----3*--------------|
|-(0)----------5*--------4*------3*-----------------|
|-----(0)-------------------------------------------|
|---------------------------------------------------|
|---------------------------------------------------|


|-----------------------------------------|
|-----------------------------------------|
|-----------------------------------------|
|-2~~~~~~~~~~~~~~~~~~~--------------------|
|-2~~~~~~~~~~~~~~~~~~~--------------------|
|-0~~~~~~~~~~~~~~~~~~~--------------------|


Not exact, but it sounds pretty close and it’s the first and only attempt at it.
Enjoy! PLEASE COMMENT/RATE!!!!!!

Remember, E Flat Standard Tuning.
| /  slide up
| \  slide down
| h  hammer-on
| p  pull-off
| ~  vibrato
| +  harmonic
| x  Mute note
===============================================================================

            
            
Suggest correction
Creating personal tab
Creating personal tab
You can edit any tab online and save it as your Personal.

You can edit, replace or remove any tab part or add personal notes – all changes will be seen only by you.

Personal tabs can be accessed anytime from any device, even offline.
Learn more »
comments
print report bad tab
3 comments total.
0 reply
thezohan 374 Jul 04, 2009 05:57 AM

it's the solo for Raining Blood. I would think more than 10 people would be looking at it but i guess i was wrong......

+2 reply
ippystratman 20 Jul 06, 2009 12:12 AM

hmmm looks ok i guess. the right number of notes would hav been nice though

0 reply
rongold360 150 Aug 06, 2009 04:20 PM

YOU SUCK!!! Jk, nice job.
-Ronnie

guest
You may want to rate the tab now too:
select rating
Wanna post a correction for this tab? Suggest correction