Oops, an error
Loading. Please wait.

Raining Blood Tab

version 1
version 1
1,498,909 views 2,451 this week
211 commentsread comments
1 2 3 4 5
excellent!
x 440
add to favorites
launch autoscroll
font size
0
reset
how to read this tab
guitar tuner
Tab Pro tools
  • play this tab
  • loop segment
  • change instrument
  • show fretboard
  • metronome
×
Best way to learn
"Raining Blood"
Autoscroll
slow
fast
+/-
esc
set tempo
stop
Contributor
Tabbers playing skills
tza
advanced ++
Raining Blood-Slayer
Reign In Blood
Tune down 1 half step:
Eb Ab Db Gb Bb Eb


[Intro]

e|-----------------------------------------------------------------|
b|-----------------------------------------------------------------|
g|-----------------------------------------------------------------|
d|-----------------------------------------------------------------|
a|-----------------------------------------------------------------|
e|-0---------------------------------------------------------------|


[Riff A]

e|-----------------------------------------------------------------|
b|-----------------------------------------------------------------|
g|-----------------------------------------------------------------|
d|---------8-9-8-----8-7-----7-6-------------8-9-8-----8-7-----7-6-|
a|-------7---------9-------8---------------7---------9-------8-----|
e|-0-0-0-----------------------------0-0-0-------------------------|


(Both Guitars)

e|-----------------------------------------------------------------|
b|-----------------------------------------------------------------|
g|---------8-9-8-----8-7-----7-6-------------8-9-8-----8-7-----7-6-|
d|-------7-8-9-8---9-8-7-----7-6-----------7-8-9-8---9-8-7---8-7-6-|
a|-------7---------9-------8---------------7---------9-------8-----|
e|-0-0-0-----------------------------0-0-0-------------------------|

e|-----------------------------------------------------------------|
b|-----------------------------------------------------------------|
g|-----------------------------------------------------------------|
d|-----------------------------------------------------------------|
a|-----------------------------------------------------------------|
e|-0-0--0--0-0--0--0-0--0--0-0--0--0-0--0--0-0--0--0-0--0--0-0--0--|

e|-----------------------------------------------------------------|
b|-----------------------------------------------------------------|
g|-----------------------------------------------------------------|
d|---------------------------------------------3--2----------------|
a|------------------------------------------4--------3--2----------|
e|-0-0--0--0-0--0--0-0--0--0-0--0--0--2--4-------------------------|

e|-----------------------------------------------------------------|
b|-----------------------------------------------------------------|
g|-----------------------------------------------------------------|x2
d|-----------------------------------------------------------------|
a|-----------------------------------------------------------------|
e|-5-3-2-0-6-5-3-0-5-3-2-0-6-5-3-0-5-3-2-0-6-5-3-0-5-3-2-0-6-5-3-0-|

e|-----------------------------------------------------------------|
b|-----------------------------------------------------------------|
g|-----------------------------------------------------------------|x3
d|--------------------------------------------------3--------------|
a|--------------------------------------------------1--------------|
e|-5-3-2-0-6-5-3-0-5-3-2-0-6-5-3-0-5-3-2-0-6-5-3-0-----------------|

e|-----------------------------------------------------------------|
b|-----------------------------------------------------------------|
g|-----------------------------------------------------------------|
d|-----------------------------------------------------------------|
a|--------------------------------------------------5----8---------|
e|-5-3-2-0-6-5-3-0-5-3-2-0-6-5-3-0-5-3-2-0-6-5-3-0--3----6---------|


[Verses]

e|-----------------------------------------------------------------|
b|-----------------------------------------------------------------|
g|-----------------------------------------------------------------|
d|-----------------------------------------------------------------|
a|---------------10--14--13-------------------9--9--12-------------|
e|-0---0-0--0--0--8--12--11----0---0-0--0--0--7--7--10-------------|


[Interlude]

e|------------------------------------------------------------------------------|
b|------------------------------------------------------------------------------|
g|------------------------------------------------------------------------------|
d|----------------------------------------8-7--8-8-8-8-8-8-8-8-8-8-8-8-8-8------|
a|--------------7h10p8p7-8----------7--10------6-6-6-6-6-6-6-6-6-6-6-6-6-6--7-7-|
e|-0--0--0--0---------------0--0--0-----------------------------------------5-5-|


[Bridge]

e|-----------------------------------------------------------------|
b|-----------------------------------------------------------------|
g|-----------------------------------------------------------------|
d|-----------------------------------------------------------------|
a|-2-2----2-2----2-2----2-2----2-2----2-2----2-2----2-2----2-2-----|
e|-0-0----0-0----0-0----0-0----0-0----0-0----0-0----0-0----0-0-----|


[Riff over bridge]

e|-----------------------------------------------------------------|
b|-----------------------------------------------------------------|
g|-----------------------------------------------------------------|
d|--------9---------8---------7------------------------------------|
a|---7-10------7-10------7-10------7-10-9--------------------------|
e|-7---------7---------7---------7---------------------------------|


[Chorus]

e|-----------------------------------------------------------------|
b|-----------------------------------------------------------------|
g|-----------------------------------------------------------------|
d|-----------------------------------------------------------------|
a|-----5-9-----5-8-----5-7-----5-4-----5-9-----5-8-----5-7-----5-4-|
e|-0-0-3-7-0-0-3-6-0-0-3-5-0-0-3-2-0-0-3-7-0-0-3-6-0-0-3-5-0-0-3-2-|
   ...blood!...

e|-----------------------------------------------------------------|
b|-----------------------------------------------------------------|
g|-----------------------------------------------------------------|x2
d|-----------------------------------------------------------------|
a|-----------------------------------------------------------------|
e|-0-0-0-0-0-0-0-0-0-0-0-0-0-0-0-0-0-0-0-0-0-0-0-0-0-0-0-0-0-0-0-0-|


[Outro]

e|-----------------------------------------------------------------|
b|-----------------------------------------------------------------|
g|-----------------------------------------------------------------|x2
d|-----------------------------------------------------------------|
a|-----------------------------------------------------------------|
e|-0-0-0-0-1-1-7-7-6-6-6-3-3-3-3-3-0-0-0-0-1-1-7-7-6-6-6-3-3-3-3-3-|

e|-----------------------------------------------------------------|
b|-----------------------------------------------------------------|
g|-----------------------------------------------------------------|
d|-----------------------------------------------------------------|
a|-----------------------------------------------------------------|
e|-4-4-4-4-4-4-8-8-7-7-7-7-7-7-8-8-4-4-4-4-4-4-8-8-7-7-7-7-7-7-8-8-|

e|-----------------------------------------------------------------|
b|-----------------------------------------------------------------|
g|-----------------------------------------------------------------|
d|-----------------------------------------------------------------|
a|-----------------------------------------------------------------|
e|-0-0-0-0-1-1-7-7-6-6-6-3-3-3-3-3-0-0-0-0-1-1-7-7-6-6-6-3-3-3-3-3-|

e|-----------------------------------------------------------------|
b|-----------------------------------------------------------------|
g|-----------------------------------------------------------------|
d|-----------------------------------------------------------------|
a|-----------------------------------------------------------------|
e|-0-0-0-0-0-0-0-0-0-0-0-0-0-0-0-0-0-0-0-0-0-0-0-0-0-0-0-0-0-0-0-0-|



***********************************
| h   Hummer-on
| p   Pull-off
***********************************
comments
print report bad tab
211 comments total. Showing first comments. show 1 bad comment
+22 reply
frisco wrote on August 13 2003, 12:00 am

Great Tab!

+12 reply
tza wrote on September 10 2003, 12:00 am

the spider crawl riff is actually like this

a---------------------------------------------
e-5-3-2-0-6-4-3-0-5-3-2-0-6-4-3-0-

sorry minor error :(

I want to post or [tab]
guest
You may want to rate the tab now too:
select rating
Please do not post tabs as comments. Select "correction" instead!