Oops, an error
Loading. Please wait.

Raining Blood Bass Tab

version 3
version 3
2,333 views 1 this week
3 commentsread comments
1 2 3 4 5
accurate
x 4
add to favorites
launch autoscroll
font size
0
reset
guitar tuner
Autoscroll
slow
fast
+/-
esc
set tempo
stop
Help us to improve Ultimate-Guitar.com Take our survey!
×
Author
Difficulty
intermediate
   |  Slayer - Raining Blood  |
   Tuning : 1/2 Step down
   EbAbDbGb
 Alright, I know there are like 3 tabs for this song on bass, however none of them are 
correct.
Some of your first impressions may be "wtf". But if you have guitar hero III go to 
then Practice, then select raining blood, then hit guitar, then it will apply everything to 
only. And that how i've tabbed it.
Hopefully i'll be able to make it easy and simple, i hope it is guys.
Here we go
Intro
When the rain starts at the beginning.
g--------------------------------------------------------|
d--------------------------------------------------------|
a--------------------------------------------------------|
e-0~-----------------------------------------------------|

Alright, here comes the guitar, the first 3 E's match the drums.
The bass is NOT active during this part.

Now the bass comes in when the guitar is doing the triplets.
Let the E7's ring out during the second set of triplet.
g------------------------------------------------|
d----------------------------------------3-2-----|
a------7-------7-------7-------7-------4-----3-2-|
e-000-----000-----000-----000------2-4-----------| Repeat a few times

Now comes the extremely fast shredding part.
g------------------|-----------------------------------------|
d------------------|-----------------------------------------|
a------------------|-----------------------------------------|
e-5-6-5-6-5-6-5-6--|------5320643053206430--532064305320--03-|
                      <              Repeat                 >

g------------------|-----------------|
d------------------|-----------------|
a-----------------1|-----------------|
e-5320643053206430-|-532064303---6---|

g-----------------|-----------------|-----------------|-----------------|
d-----------------|-----------------|-----------------|-----------------|
a---------3---6---|---------2---5---|---------3---6---|---------2---5---|
e-0-00000---0-----|-0-00000---------|-0-00000---0-----|-0-00000---------|

g-----------------|-----------------|-----------------|-----------------|
d-----------------|-----------------|-----------------|-----------------|
a---------3---6---|---------2---5---|---------3---6---|---------2---5---|
e-0-00000---0-----|-0-00000---------|-0-00000---0-----|-0-00000---------|

g-----------------|-----------------|-----------------|-----------------|
d-----------------|-----------------|-----------------|-----------------|
a---------3---6---|---------2---5---|---------3---6---|---------2---5---|
e-0-00000---0-----|-0-00000---------|-0-00000---0-----|-0-00000---------|

g-----------------|-----------------|-----------------|-----------------||
d-----------------|-----------------|-----------------|-----------------||
a---------3---6---|---------2---5---|---------3---6---|---------2---5---||
e-0-00000---0-----|-0-00000---------|-0-00000---0-----|-0-00000---------||


g--------------------|-----------------|-----------------|-----------------|
d--------------------|-----------------|-----------------|-----------------|
a--------------------|-----------------|-6-6-6-6-6-6-6-6-|-6-6-6-6---------|
e-0-0-0-0-0h3p1p01---|-0-0-0-0-3-6-5---|-----------------|---------5---5---|

g--------------------|-----------------|-----------------|-----------------||
d--------------------|-----------------|-----------------|-----------------||
a--------------------|-----------------|-6-6-6-6-6-6-6-6-|-6-6-6-6---------||
e-0-0-0-0-0h3p1p01---|-0-0-0-0-3-6-5---|-----------------|---------5---5---||


g-----------------|--------------------|-----------------|-----------------|
d-----------------|--------------------|-----------------|-----------------|
a-----------------|--------------------|-6-6-6-6-6-6-6-6-|-6-6-6-6---------|
e-0-0-0-0-0h3p1p01|----0-0-0-0-3-6-5---|-----------------|---------5---5---|

g--------------------|-----------------|-----------------|-----------------||
d--------------------|-----------------|-----------------|-----------------||
a--------------------|-----------------|-6-6-6-6-6-6-6-6-|-6-6-6-6---------||
e-0-0-0-0-0h3p1p01---|-0-0-0-0-3-6-5---|-----------------|---------5---5---||


g-----------------|-----------------|-----------------|-----------------|
d-----------------|-----------------|-----------------|-----------------|
a-----------------|-----------------|-----------------|-----------------|
e-0-0-0-----------|-----------------|-0-0-0-----------|-----------------|

g-----------------|-----------------|-----------------|-----------------||
d-----------------|-----------------|-----------------|-----------------||
a-----------------|-----------------|-----------------|-----------------||
e-0-0-0---6-------|-5-------4-------|-0-0-0---6-------|-5-------4-------||


Your time slips a- way

g----------------------------------------------------------------|
d----------------------------------------------------------------|
a------------------------------7-7---7-7---7-7---7-7---7-7---7-7-|
e-0-0---0-0---0-0---0-0---0-0------------------------------------|

g-----------------|-----------------|-----------------|-----------------|
d-----------------|-----------------|-----------------|-----------------|
a-----------------|-----------------|-----------------|-----------------|
e-0-0-3-7-0-0-3-6-|-0-0-3-5-0-0-3\2-|-0-0-3-7-0-0-3-6-|-0-0-3-5-0-0-3\2-|


g-----------------------------------|
d-----------------------------------|
a-----------------------------------|
e-000000000000000000000000000000000-|

g-------------------------------------------|
d-------------------------------------------|
a-------------------------------------------|   Solo Backing
e-0000000-777766663333-0000000-777766663333-|

g-------------------------------------------|
d-------------------------------------------|
a-------------------------------------------|
e-44444444-88777788-44444444-88777778888----|

g-------------------------------------------|
d-------------------------------------------|
a-------------------------------------------|
e-0000000-777766663333-0000000-777766663333-|

g--------------------------R~~~~~~~~~~~~~~~~~~~~~~~~~~~~~~~~~~~~|
d--------------------------A~~~~~~~~~~~~~~~~~~~~~~~~~~~~~~~~~~~~|
A--------------------------I~~~~~~~~~~~~~~~~~~~~~~~~~~~~~~~~~~~~|
e-0000000000000000000------N~~~~~~~~~~~~~~~~~~~~~~~/\/\/\/\~~~~~|

H = Hammer On
P = Pull off
/ = Slide
Well thats it, check the bass track off of guitar hero III. This should be pretty right, 
it before you hate!!
Dylan - Nighthawk1994@aol.com - FuckinSlayer
Suggest correction
comments
print report bad tab
3 comments total. show 1 bad comment
+2 reply
KirkHammstter 10 wrote on July 11 2010, 01:05 am

You say the other tabs are wrong and yours is completely wrong... version 2 is based on the master track of the song and is 100% accurate, you just copied what the guitar plays, if you listen to the master track or the backing track in GH3 you will see that the bass doesn't play the "fast shredding part" and doesn't follow completely the guitar at the solo.

0 reply
MisterMushroom 303 wrote on May 1 2011, 08:14 am

Dude gtfo, this tab is completely wrong :')

guest
You may want to rate the tab now too:
select rating
Wanna post a correction for this tab? Suggest correction