Oops, an error
Loading. Please wait.
We have an official Raining Blood tab made by UG professional guitarists. Check out the tab »
×
by Slayer
13,850 views 6 this week
no commentswrite comment
1 2 3 4 5
x 5
add to favorites
×
Save as Personal and add changes to this tab that will be seen only by you. Learn more ›
×
You can save this tab as Personal to edit and correct it or add notes. All changes will be seen only by you. Learn more »
launch autoscroll
font size
0
reset
how to read this tab
guitar tuner
backing track
0:00
0:00
edit
Autoscroll
slow
fast
+/-
esc
set tempo
stop
Author
in this song in guitar hero dont be the truelly beggining is like this
1 guitar play this ones and then both guitars do it and enter the voice 
1--------------------------------------------------------------------------
2--------------------------------------------------------------------------
3-------------------------------------------------------------------------- 
4--------------------------------------------------------------------------x7
5-------------------------------------------------------------------------- 
6-3-3-3-3-3-3-3-2-2-2-2-2-2-2-2-2-2-4-4-4-4-4-4-4-4-4-1-1-1-1-1-1-1-1-1-1-1
(so fuking fast)

both guitars

1--------------------------------------------------------------------------
2--------------------------------------------------------------------------
3--------------------------------------------------------------------------x2           
4--------------------------------------------------------------------------
5--------------------------------------------------------------------------
6-1-1-1-1-1-1-1-1-9-9-9-9-9-8-8-8-8-7-7-7-7-1-1-1-1-2-2-2-2-2-4-4-4-4-4-3-3-3-3-3
fast, fast

all this for 2

then you have to make this wear sound whith the bar in the 2 string

then the tipical song

Intro; no guitar.
Riff 1 (2x)
|---------------------------------------------------------------|
|---------------------------------------------------------------|
|---------------------------------------------------------------|
|---------8-9-8----8-7-----7-6----------------------------------|
|-------7--------9------8---------------------------------------|
|-0-0-0---------------------------------------------------------|
  pm---|
Riff 2 (2x)
|---------------------------------------------------------------|
|---------------------------------------------------------------|
|---------8-9-8----8-7----7-6-----------------------------------|
|-------7--------9------8---------------------------------------|
|---------------------------------------------------------------|
|-0-0-0---------------------------------------------------------|
  pm---|
Riff 3 (4x)
|---------------------------------------------------------------|
|---------------------------------------------------------------|
|---------------------------------------------------------------|
|---------------------------------------------------------------|
|---------------------------------------------------------------|
|-000-000-000-000-000-000-000-000-000-000-000-000---------------|
  pm---------------------------------------------|
|---------------------------------------------------------------|
|---------------------------------------------------------------|
|---------------------------------------------------------------|
|-------------3--2----------------------------------------------|
|----------4--------3--2----------------------------------------|
|-0--2--4-------------------------------------------------------|
  pm-----|
Riff 4 (2x)(repeat)
|---------------------------------|-----------------------------|
|---------------------------------|-----------------------------|
|---------------------------------|-------------%---------------|
|---------------------------------|-------------%---------------|
|---------------------------------|-----------------------------|
|-5-3-2-0-6-4-3-0-5-3-2-0-6-4-3-0-|-----------------------------|
  pm-----------------------------|



|--------------------------------------------------------------|
|--------------------------------------------------------------|
|--------------------------------------------------------------|
|--------------------------------------------------------------|
|--------------------------------------------------------------|
|-5-3-2-0-6-4-3-0-5-3-2-0-6-4-3-0-5-3-2-0-6-4-3-0-5-3-2-0-6-4-3|
  pm-----------------------------------------------------------|
|--------------------------------------------------------------|
|--------------------------------------------------------------|
|--------------------------------------------------------------|
|-----------3--------------------------------------------------|
|-----------1--------------------------------------------------|
|-0-5-3-2-0---0-3-5-3-2-0-6-4-3-0-5-3-2-0-6-4-3-0-5-3-2-0-6-4-3|
  pm-------|  pm-----------------------------------------------|
|--------------------------------------------------------------|
|--------------------------------------------------------------|
|--------------------------------------------------------------|
|--------------------------------------------------------------|
|----5----8----------------------------------------------------|
|-0--3----6----------------------------------------------------|
 pm
Riff 5 (8x) (Trapped in Purgatory. . . . . . )
|---------------------------------------------------------------|
|---------------------------------------------------------------|
|--------9--8---------7-----------------------------------------|               
|-----7--7--6------7--5-----------------------------------------|
|0000-5-------0000-5--------------------------------------------|
 pm--|        pm--|
Riff 6 (4x) (pierced from below. . . . .)
|---------------------------------------------------------------|
|---------------------------------------------------------------|
|------------------------------------888888---------------------|
|-------------------------------8-7--888888-7-7-----------------|
|---------7h10p8-7-8-------7-10------666666-7-7-----------------|
|-0-0-0-0------------0-0-0------------------5-5-----------------|
  pm-----|           pm---|
Riff 7 (4x)
|---------------------------------------------------------------|
|---------------------------------------------------------------|
|----------10-11-10-----10-9-----9-8----------------------------|
|--------9-----------11-------10--------------------------------|
|---------------------------------------------------------------|
|-0-0-0---------------------------------------------------------|
  pm---|






Riff 8 2nd time with pick slide
|---------------------------------------------------------------|
|---------------------------------------------------------------|
|---------------------------------------------------------------|
|---------------------------------------------------------------|
|-22--22--22--22--22--22--22--22--------------------------------|
|-00--00--00--00--00--00--00--00--------------------------------|
  pm----------------------------|
Riff 9(6x w/Riff 8)
|---------------------------------------------------------------|
|---------------------------------------------------------------|
|---------------------------------------------------------------|
|----------9------------8------------7--------------------------|
|---7--10--------7--10--------7--10--------7-10-9---------------|
|-0-----------0------------0------------0-----------------------|
  pm          pm           pm           pm 
Riff 10 (4x) (Raining Bloooooood . . . . . . .)
|---------------------------------------------------------------|
|---------------------------------------------------------------|
|---------------------------------------------------------------|
|---------------------------------------------------------------|
|-----5--9------5--8------5--7-----5--4-------------------------|
|-0-0-3--7--0-0-3--6--0-0-3--5-0-0-3--2-------------------------|
  pm-|      pm-|      pm-|     pm-|
|---------------------------------------------------------------|
|---------------------------------------------------------------|
|---------------------------------------------------------------|
|---------------------------------------------------------------|
|---------------------------------------------------------------|
|000000000000000000000000000000000000000000000000000000000000000|
Play this with "noise"
|---------------------------------------------------------------|
|---------------------------------------------------------------|
|---------------------------------------------------------------|
|---------------------------------------------------------------|
|---------------------------------------------------------------|
|000000007777777777666666666633333344444444447777777777888888888|

Well, its not the most difficult Slayer song, but you really have to work on pla


            
            
Suggest correction
Creating personal tab
Creating personal tab
You can edit any tab online and save it as your Personal.

You can edit, replace or remove any tab part or add personal notes – all changes will be seen only by you.

Personal tabs can be accessed anytime from any device, even offline.
Learn more »
comments
print report bad tab
guest
You may want to rate the tab now too:
select rating
Wanna post a correction for this tab? Suggest correction