Oops, an error
Loading. Please wait.

Repentless tab

version 1
version 1

Whole song

  • Better tab for intro and verse.
  • This version has added omitted notes and is also easy to read.

Interactive

by Slayer
36,796 views 144 this week
4 commentsread comments
1 2 3 4 5
x 23
add to favorites
×
Save as Personal and add changes to this tab that will be seen only by you. Learn more ›
×
You can save this tab as Personal to edit and correct it or add notes. All changes will be seen only by you. Learn more »
launch autoscroll
font size
0
reset
how to read this tab
guitar tuner
backing track
0:00
0:00
edit
Autoscroll
slow
fast
+/-
esc
set tempo
stop
Artist: Slayer
Song: Repentless
Album: Repentless

Release Date: September 11th, 2015

“Live fast,
On high,
Repentless,
Let it ride!”

Tuning: Eb

TAB DOES NOT INCLUDE SOLO

+ = Palm Mute


[Intro]

eb|--------------------------------------------|
Bb|--------------------------------------------|
Gb|--------------------------------------------|  X2
Db|--------------------------------------------|
Ab|-----7---8---10---8---5----7~---8~----------|
Eb|—0-0---0---0----0---0---0--5~---6~----------|
   + +   +   +    +   +   +

on the third one…
eb|-------------------------------------------|
Bb|-------------------------------------------|
Gb|-------------------------------------------|
Db|-------------------------------------------|
Ab|-----7---8---10---8---5------8~------------|
Eb|—0-0---0---0----0---0---0—---6~------------|
   + +   +   +    +   +   +


[Figure 2] *Repeat 3 times

eb|------------------------------------------------------------|
Bb|------------------------------------------------------------|
Gb|------------------------------------------------------------|  
Db|---------8~-7~------12~-11~------8~-7~----------------------|
Ab|--7~--8~-6~-5~---8~-10~-9~~---8~-6~-5~--5p6p5----5----------|
Eb|—-5~--6~---------6~-----------6~-------------7-6---7-6-5----|
                                               + +   + + +


[Figure 3: Verses]

 “Arrogance, violence, world in disarray…”
eb|------------------------------------------------------------|
Bb|------------------------------------------------------------|
Gb|------------------------------------------------------------|
Db|------------------------------------------------------------|
Ab|-----------------------------------------------------5~-----|
Eb|—0222222223333333322222222--022222222333333332222222-3~-----|
   +++++++++++++++++++++++++  ++++++++++++++++++++++++

“I hate the life, hate the fame, hate the fuckin’ scene…”
eb|------------------------------------------------------------|
Bb|------------------------------------------------------------|
Gb|------------------------------------------------------------|
Db|------------------------------------------------------------|
Ab|---------------------------------------------------2--------|
Eb|—0222222223333333322222222--02222222233333333222222-323-----|
   +++++++++++++++++++++++++  +++++++++++++++++++++++++++

“Ain’t got the time…”
eb|------------------------------------------------------------|
Bb|------------------------------------------------------------|
Gb|------------------------------------------------------------|
Db|------------------------------------------------------------|
Ab|---------------------------------------------------7~-5-----|
Eb|—0222222223333333322222222--022222222333333332222225~-3-----|
   +++++++++++++++++++++++++  +++++++++++++++++++++++

“No looking back, no regrets, no apologies….”
eb|------------------------------------------------------------|
Bb|------------------------------------------------------------|
Gb|------------------------------------------------------------|
Db|------------------------------------------------------------|
Ab|--------------------------------------------2-----2---------|
Eb|—0222222223333333322222222-0222222223333333--3-2-3-3-2-3----|
   +++++++++++++++++++++++++ ++++++++++++++++ ++ + +++ + +


[Figure 4: Chorus]

“Live Fast!”
eb|-----------------------------------|
Bb|-----------------------------------|
Gb|-----------------------------------|
Db|-----------------------------------|
Ab|------------------7--10--5--8--7---|
Eb|-0000000000000000---0---0--0--0--0-|
   ++++++++++++++++   +   +  +  +  +

“On high!”
eb|-----------------------------------|
Bb|-----------------------------------|
Gb|-----------------------------------|
Db|-----------------------------------|
Ab|------------------7--10--7--8--5---|
Eb|-0000000000000000---0---0--0--0--0-|
   ++++++++++++++++   +   +  +  +  +

“Repentless!”
eb|-----------------------------------|
Bb|-----------------------------------|
Gb|-----------------------------------|
Db|-----------------------------------|
Ab|------------------7--10--5--10--8--|
Eb|-0000000000000000---0--0---0--0--0-|
   ++++++++++++++++   +  +   +  +  +

“Let it ride!”
eb|-----------------------------------|
Bb|-----------------------------------|
Gb|-----------------------------------|
Db|-----------------------------------|
Ab|------------------7--10--8----8~-8~|
Eb|-0000000000000000---0---0--0--6~-6~|
   ++++++++++++++++   +   +  +


Basically repeat Figure 3 and Figure 4 for the next verse and Chorus


[Figure 5: Solo Rhythm]

PART ONE: *Repeat twice*
eb|------------------------------------------------------------|
Bb|------------------------------------------------------------|
Gb|------------------------------------------------------------|
Db|---------8~-7~------12~-11~------8~-7~----------------------|
Ab|--7~--8~-6~-5~---8~-10~-9~~---8~-6~-5~--5p6p5----5----------|
Eb|—-5~--6~---------6~-----------6~-------------7-6---7-6-5----|
                                               + + + + + +

PART TWO: *Repeat twice*
eb|-------------------------------------------------------|
Bb|-------------------------------------------------------|
Gb|-------------------------------------------------------|
Db|-------------------------------------------------------|
Ab|-------------------------------------------------------|
Eb|--022222222-020-022222222-020-033333333-020-022222222--|
    +++++++++ +++ +++++++++ +++ +++++++++ +++ +++++++++

PART THREE *Repeat twice*
eb|-------------------------------------------------------|
Bb|-------------------------------------------------------|
Gb|-------------------------------------------------------|
Db|-------------------------------------------------------|
Ab|--022222222-020-022222222-020-033333333-020-022222222--|
Eb|-------------------------------------------------------|
    +++++++++ +++ +++++++++ +++ +++++++++ +++ +++++++++

PART FOUR: *Repeat twice*
eb|-------------------------------------------------------|
Bb|-------------------------------------------------------|
Gb|-------------------------------------------------------|
Db|-------------------------------------------------------|
Ab|-------------------------------------------------------|
Eb|--022222222-020-022222222-020-033333333-020-022222222--|
    +++++++++ +++ +++++++++ +++ +++++++++ +++ +++++++++


[Figure 6: AFTER SOLO]

eb|--------------------------------------------|
Bb|--------------------------------------------|
Gb|--------------------------------------------|
Db|--------------------------------------------|
Ab|-----8---7---8---10---7----7~---8~----------|
Eb|—0-0---0---0---0----0---0--5~---6~----------|
   + +   +   +   +    +   +

eb|----------------------------------------|
Bb|----------------------------------------|
Gb|----------------------------------------|
Db|----------------------------------------|
Ab|-----8---7---8---10---7-----8~----------|
Eb|—0-0---0---0---0----0---0---6~----------|
   + +   +   +   +    +   +

eb|-----------------------------------------|
Bb|-----------------------------------------|
Gb|-----------------------------------------|
Db|-----------------------------------------|
Ab|-----8---7---8---12---10---8---5---------|
Eb|—0-0---0---0---0----0----0---0---0-------|
   + +   +   +   +    +    +   +   +

eb|--------------------------------------------|
Bb|--------------------------------------------|
Gb|--------------------------------------------|
Db|--------------------------------------------|
Ab|-----8---7---8---10---7----7~---8~----------|
Eb|—0-0---0---0---0----0---0--5~---6~----------|
   + +   +   +   +    +   +


After that, just return to Figures 3 and 4 for the verse and Chorus, and than to
Figure 2 and Figure 1 for the ending.


************************************

| p  Pull-off
| b  Bend
| ~  Vibrato
| +  Palm Mute

************************************

            
            
Suggest correction
Creating personal tab
Creating personal tab
You can edit any tab online and save it as your Personal.

You can edit, replace or remove any tab part or add personal notes – all changes will be seen only by you.

Personal tabs can be accessed anytime from any device, even offline.
Learn more »
comments
print report bad tab
4 comments total. Showing first comments.
+1 reply
adrockodell 10 Aug 24, 2015 05:56 PM

\m/ slayer ! ! !

+5 reply
rprdo 20 Sep 15, 2015 08:27 AM

I thought "shame, no solos", but then I remembered I wouldn't be able to play them anyway, haha nice tab tho

0 reply
Fepo 779 Feb 22, 2016 06:30 AM

Great Tab. Thanx a lot

guest
You may want to rate the tab now too:
select rating
Wanna post a correction for this tab? Suggest correction