Oops, an error
Loading. Please wait.

Seasons In The Abyss album tab

version 1
version 1

Album

Whole song

by Slayer
27,925 views 12 this week
no commentswrite comment
1 2 3 4 5
x 5
add to favorites
×
Save as Personal and add changes to this tab that will be seen only by you. Learn more ›
×
You can save this tab as Personal to edit and correct it or add notes. All changes will be seen only by you. Learn more »
launch autoscroll
font size
0
reset
how to read this tab
guitar tuner
backing track
0:00
0:00
edit
Autoscroll
slow
fast
+/-
esc
set tempo
stop
Author
THESE ARE NOT MY TABS
I was surprised to see no one had done a tab of this album and so i'm making one.

1. War Ensemble - Unregistered
2. Blood Red - b.c. warlock926
3. Spirit In Black - Unregistered
4. Expendable Youth - tonedeafidiot
5. Dead Skin Mask - Overt Enemy
6. Hallowed Point - Unregistered
7. Skeletons Of Society - MASTER JiMMY
8. Tempation - Unregistered
9. Born Of Fire - tonedeafidiot
10. Seasons In The Abyss - ashgnr

Eb Tuning


1.                                      WAR ENSEMBLE

P.M.--| = Palm Mute
p = Pull Off


riff a   P.M.--      ------      ----       -----------------------|
Eb|-------------------------------------------------|--------------|
Bb|-------------------------------------------------|--------------|
Gb|-------------------------------------------------|--------------|
Db|-------------------------------------------------|-8--5---------|
Ab|-------------------------------------------------|-8--5---------|
Eb|-3p1p0-0-0-0-3p1p0-0-0-0-3p1p0-0--0-0-3p1p0-0-0-0|-6--7---------|

P.M.---------------------------------------------------------------|
Eb|----------------------------------------------------------------|
Bb|----------------------------------------------------------------|
Gb|----------------------------------------------------------------|
Db|----------------------------------------------------------------|
Ab|-------2--1-----------------------------------------------------|
Eb|-0--3-------0--3--2--1------------------------------------------|

Riff B
P.M.  -      -      -            -       -      -|
Eb|--------------------------------------------------------------|
Bb|--------------------------------------------------------------|
Gb|--------------------------------------------------------------|
Db|---------------------------------5-4----6-5----9-8--8\--------|
Ab|2----5-4----6-5----9-8---8\-2-0--3-2--0-4-3--0-7-6--6\--------|
Eb|0--0-3-2--0-4-3--0-7-6---6\-0---------------------------------|

P.M. -----   -----   -   -----   -----   -----   -----   -----|
Eb|--------------------------------------------------------------|
Bb|--------------------------------------------------------------|
Gb|--------------------------------------------------------------|
Db|--------------------------------------------------------------|
Ab|3-------3-------3---6-------6-------5-------5-------4-------4-|
Eb|--3-3-3---3-3-3---3---3-3-3---3-3-3---3-3-3---3-3-3---3-3-3---|

P.M.----    -|
Eb|-----------|-----------------|--------------------------------|
Bb|-----------|-----------------|--------------------------------|
Gb|-----------|-----------------|--------------------------------|
Db|-----------|-----------------|--------------------------------|
Ab|--------4--|-----------------|-2--2--2---2--2--2--2-----------|
Eb|-3-3-3----3|-----------------|-0--0--0---0--0--0--0-----------|
               PUT RIFF A HERE ^
RIFF-C
P.M.  -       -     -           HEAVY P.M.-------------------------|
Eb|----------------------------------------------------------------|
Bb|----------------------------------------------------------------|
Gb|----------------------------------------------------------------|
Db|----------------------------------------------------------------|
Ab|-2----5-4----6-5----9-8--8\--2-2-2-2-2-2-2-2-2-2-2-2-2-2-2-2----|
Eb|-0--0-3-2--0-4-3--0-7-6--6\--0-0-0-0-0-0-0-0-0-0-0-0-0-0-0-0----|

P.M.  -      --    ---         HEAVY P.M.--------------------------|
Eb|----------------------------------------------------------------|
Bb|----------------------------------------------------------------|
Gb|----------------------------------------------------------------|
Db|-------------------------------------------------9-9-9-9-9-9-9--|
Ab|-2----5-4----6-5----9-8--8---2-2-2-2-2-2-7-7-7-7-7-7-7-7-7-7-7--|
Eb|-0--0-3-2--0-4-3--0-7-6--6\--0-0-0-0-0-0-0-0-0-0-0-0-0-0-0-0-0--|

==>RIFF B w/ "The sport is war, Total war"

P.M.---------------------------------------------------------------|
Eb|----------------------------------------------------------------|
Bb|----------------------------------------------------------------|
Gb|----------------------------------------------------------------|
Db|----8-7---------------------------------------------------------|
Ab|----8-7-----6--5-----8-7---7-6----5--7--8-----------------------|
Eb|0--------0--6--5--0--8-7-0-7-6----3--5--6-----------------------|

P.M.---------------------------------------------------------------|
Eb|----------------------------------------------------------------|
Bb|----------------------------------------------------------------|
Gb|----------------------------------------------------------------|
Db|-----8-7--------------------------------------------------------|
Ab|-----8-7----6--5-----8-7---7-6---5--8--6------------------------|
Eb|0--------0--6--5--0--8-7-0-7-6---3--6--4------------------------|

P.M.---------------------------------------------------------------|
Eb|----------------------------------------------------------------|
Bb|----------------------------------------------------------------|
Gb|----------------------------------------------------------------|
Db|-----8-7--------------------------------------------------------|
Ab|-----8-7----6--5-----8-7---7-6----8--6--5-----------------------|
Eb|0--------0--6--5--0--8-7-0-7-6----6--4--3-----------------------|

W/Lyrics "Be Dead Fiend"
P.M.---------------------------------------------------------------|
Eb|----------------------------------------------------------------|
Bb|----------------------------------------------------------------|
Gb|----------------------------------------------------------------|
Db|-----8-7--------------------------------------------------------|
Ab|-----8-7----6--5-----8-7---7-6----3--3--------------------------|
Eb|0--------0--6--5--0--8-7-0-7-6----1--1--------------------------|

     P.M-----------------------------------------------------------|
Eb|----------------------------------------------------------------|
Bb|----------------------------------------------------------------|
Gb|----------------------------------------------------------------|
Db|----------------------------------------------------------------|
Ab|2---------------------------------5-7-8-------------------------|
Eb|0----0-0-0-0-0-0-0-0-0-0-0-0-0----3-5-6-------------------------|

     P.M-----------------------------------------------------------|
Eb|----------------------------------------------------------------|
Bb|----------------------------------------------------------------|
Gb|----------------------------------------------------------------|
Db|----------------------------------------------------------------|
Ab|2---------------------------------5-8-7-------------------------|
Eb|0----0-0-0-0-0-0-0-0-0-0-0-0-0----3-6-5-------------------------|

     P.M-----------------------------------------------------------|
Eb|----------------------------------------------------------------|
Bb|----------------------------------------------------------------|
Gb|----------------------------------------------------------------|
Db|----------------------------------------------------------------|
Ab|2---------------------------------8-5-5-------------------------|
Eb|0----0-0-0-0-0-0-0-0-0-0-0-0-0----6-7-3-------------------------|

     P.M-----------------------------------------------------------|
Eb|----------------------------------------------------------------|
Bb|----------------------------------------------------------------|
Gb|----------------------------------------------------------------|
Db|----------------------------------------------------------------|
Ab|2--------------------------------3-----3------------------------|
Eb|0----0-0-0-0-0-0-0-0-0-0-0-0-0---1-----1------------------------|

W/ Third Verse Lyrics
P.M.   ------   ------ -   -----   ------  -   -----   ------
Eb|--------------------------------------------------------------|
Bb|--------------------------------------------------------------|
Gb|--------------------------------------------------------------|
Db|-2--------2-------2---5-------5-------5---4-------4-------4---|
Ab|-2--------2-------2---5-------5-------5---4-------4-------4---|
Eb|----0-0-0---0-0-0---0---0-0-0---0-0-0---0---0-0-0---0-0-0---0-|

P.M.  ----   ------   ---------------------------------------------|
Eb|----------------------------------------------------------------|
Bb|----------------------------------------------------------------|
Gb|----------------------------------------------------------------|
Db|-3-------3-------3----------------------------------------------|
Ab|-3-------3-------3----------------------------------------------|
Eb|---0-0-0---0-0-0---0--------------------------------------------|


2.                                         BLOOD RED

Intro

eb---------------------------------------|
Bb---------------------------------------|
Gb---------------------------------------|
Db-----8-8-8-8---------------------------|
Ab-----7-7-7-7---10---10---10---8-8-8-8--|
Eb-0-0---------0-0--0-0--0-0--0-0-0-0-0--|
   . .         .    .    .    .

eb-----------------------------------|
Bb-----------------------------------|
Gb-----------------------------------|
Db-----8-8-8-8-----------------------|
Ab-----7-7-7-7---10---10---10---6-7--|
Eb-0-0---------0-0--0-0--0-0--0-0-0--|
   . .         .    .    .    .

eb---------------------------------------|
Bb---------------------------------------|
Gb---------------------------------------|
Db-----8-8-8-8---------------------------|
Ab-----7-7-7-7---10---10---10---8-8-8-8--|
Eb-0-0---------0-0--0-0--0-0--0-0-0-0-0--|
   . .         .    .    .    .


eb-----------------------------------|
Bb-----------------------------------|
Gb-----------------------------------|
Db-----8-8-8-8-----------------------|
Ab-----7-7-7-7---10---10-10---6-6-7--|
Eb-0-0---------0-0--0-0--0--0-0-0-0--|
   . .         .    .       .

Main Riff

Both
eb-----------------------------------|x2
Bb-----------------------------------|
Gb-----------------------------------|
Db-------------5---------------------|
Ab-----7-----6---6-5---5-6-5---------|
Eb-00-0--00-0--------6-------6-5-7---|
   .. .  .. .

Guitar 1
eb----------------------------------------|
Bb----------------------------------------|
Gb----------------------------------------|
Db--------------9-------------------------|
Ab-----10-----9---10-9----9-10-9----------|
Eb-00-0---00-0---------10--------10-9-11--|
   .. .   .. .

Guitar 2
eb-----------------------------------|
Bb-----------------------------------|
Gb-----------------------------------|
Db--------------5--------------------|
Ab------7-----6---6-5---5-6-5--------|
Eb-00-0---00-0--------6-------6-5-7--|
   .. .   .. .

Guitar 1
eb---------------------------------|
Bb---------------------------------|
Gb---------------------------------|
Db--------------9-----------3-5----|
Ab-----10-----9---10-9----9-3-5----|
Eb-00-0---00-0---------10---1-3----|
   .. .   .. .

Guitar 2
eb---------------------------------|
Bb---------------------------------|
Gb---------------------------------|
Db-------------5---------3-5-------|
Ab-----7-----6---6-5---5-3-5-------|
Eb-00-0--00-0--------6---1-3-------|
   .. .  .. .

Verse

eb----------------------------------|x3
Bb----------------------------------|
Gb----------------------------------|
Db-------------9---------------10---|
Ab-------------7---------------8----|
Eb-00-000-000-0---00-000-000-00-----|
   .. ... ... .   .. ... ... ..


eb-------------------------------------|
Bb-------------------------------------|
Gb-------------------------------------|
Db-------------9------10-10-9----------|
Ab-------------7-------8--7---10-------|
Eb-00-000-000-0---00-0-----------------|
   .. ... ... .   .. .

Chorus

eb-------------------------------------------------------------------|
Bb-------------------------------------------------------------------|
Gb-------------------------------------------------------------------|
Db-----------------------------------------------5-------------------|
Ab-55-555-555-555-533-333-333-333-3-----7------6---6-5---5-6-5-------|
Eb-33-333-333-333-311-111-111-111-1-00-0---00-0--------6-------6-5-7-|
   .. ... ... ... ... ... ... ... . .. .   .. .

eb-------------------------------------------------------------------|
Bb-------------------------------------------------------------------|
Gb-------------------------------------------------------------------|
Db-----------------------------------------------5-------------------|
Ab-55-555-555-555-533-333-333-333-3-----7------6---6-5---5-6-5-------|
Eb-33-333-333-333-311-111-111-111-1-00-0---00-0--------6-------6-5-7-|
   .. ... ... ... ... ... ... ... . .. .   .. .


Guitar 1
eb---------------------------------|
Bb---------------------------------|
Gb---------------------------------|
Db--------------9-----------3-5----|
Ab-----10-----9---10-9----9-3-5----|
Eb-00-0---00-0---------10---1-3----|
   .. .   .. .

Guitar 2
eb---------------------------------|
Bb---------------------------------|
Gb---------------------------------|
Db-------------5---------3-5-------|
Ab-----7-----6---6-5---5-3-5-------|
Eb-00-0--00-0--------6---1-3-------|
   .. .  .. .

Solo Fill
Figure 1
eb---------------------------|x8
Bb---------------------------|
Gb---------------------------|
Db---------------------------|
Ab-444-444-444-5-7-----------|
Eb-222-222-222-3-5-----------|
   ... ... ...
Figure 2
eb----------------------------------------------------|x3
Bb---------------------------------o---------------o--|
Gb----------------------------------------------------|
Db----------------------------------------------------|
Ab-666-666-666-666-555-555-555-555-o444-444-444-5-7o--|
Eb-444-444-444-444-333-333-333-333--222-222-222-3-5---|
   ... ... ... ... ... ... ... ...  ... ... ...

Figure 3
eb-----------|
Bb-----------|
Gb-----------|
Db-----------|
Ab-(6)--(5)--|
Eb-(4)--(3)--|


Order of song
Intro
Main Riff
Verse
Chorus
Verse
Chorus
Solo Fill
Verse
Chorus

3.                                      SPIRIT IN BLACK

Intro-
|----------------------------------------------------|
|----------------------------------------------------|
|----------------------------------------------------|
|-----------------------------------------------5-3--|
|-2----7p5----8p7----10p8----2----7p5----8p7----5-3--|
|-0-00-----00-----00------00-0-00-----00-----00-3-1--|
  pm--     --     --      --   --     --     --

------------------------------------------------------|
------------------------------------------------------|
------------------------------------------------------|
------------------------------------------------------|
-2----7p5----8p7----10p8----2----7p5----2-3-2-------3-|
-0-00-----00-----00------00-0-00-----00-------3-2-0-1-|
 pm--     --     --      --   --     --------------

The verse is just a variation on the intro except with a
few palm muted E5 (-2-) chords played between the notes.
                  (-0-)

Chorus-
|-----------------------------------------------|
|-----------------------------------------------|
|-----------------------------------------------|
|-------------------------------3-2-------------|
|-2----3--------3--------3----2-----3-2-1-------|
|-0-00-1-000000-1-000000-1-00-------------2-1---|
  pm--   ------   ------   ---------------------|

 Alt. endings:
|----------------|-----------------|
|----------------|-----------------|  play E5 instead of F5 on
|----------------|-----------------|  last chord of 2nd Alt. ending
|--3-2---------1-|-----------------|  on 2nd chorus (does this make
|-2----3-2-1---1-|-2-3-2-------3---|  sense?!?!?)
|------------3---|-------3-2-0-1---|
pm-------------    ----------------|

1st lead= It's too much bendy shit to do right now, if anyone
REALLY wants it, mail me.  If I get enough people mailing me,
I'll put it up.

Tempo= 220 bpm
|-------------------------------------------------------|
|-------------------------------------------------------|
|-------------------------------------------------------|
|-------------------------------------------------------|
|----------5h6p5h7p6p5h6p5h6p5----------5h6p5h7p6p5-6---|
|-00000000---------------------00000000-------------4---|
pm--------                     -------------------------|

Play w/more pm'd open e string but keep all that
5h6p5h6p5h6p5 crap going (just listen to the damn song!!!)

2nd Guitar Solo= I had to do this one, it's reeaallyy kick ass!!
It has a lot of weird bendy crap that is hell to figure out, I
hope it isn't too hard for anyone to understand.  Sorry!

Backup riff played during most of the lead
4|o-----------------------------3--5---|
5|------------------------------3--5---|
6|o--333333333333333333333333-3-1--3---|
   pm----------------------------------|

--6---------------------------9--6--o--|
--6---------------------------9--6-----|
--4-44-44444444444444444444-4/7--4--o--|
    pm---------------------------------|

|----------------------------------------------------|
|----------------------------------------------------|
|--------19-19-19-19-19-19-19-19-19-19-19-etc.-20~~--|
|----------------------------------------------------|
|-0\-------------------------------------------------|
|---\------------------------------------------------|
trem bar
to slack

  1/4 bend
-------------------3--4--7-4-3----------------------------|
----/\--/\---------------------6-4-3----------------------|
-20/--\/--\-20\----------------------5-4------------------|
-----------------------------------------6-5-3------------|
----------------x\-----------------------------6-5-3------|
-----------------------------------------------------7-4--|

----------------------------------------------------------|
----------------------------------------------------------|
-5-4-2-----------------------------------------0\--/-6p0--|
-------6-5-3-------------------------------------\/-------|
-------------6-5-3----------------------------------------|
-------------------7-4-3-7-4-3-4---4--3\------------------|
                                        \slack  (2 steps,)
                                                (1 1/4, 2)

                                               1 1/4   1 1/4
----------------------full bend---full bend------/\------/---|
-----1 step--full bend--/7\~~~------/9\~~~---/12/--\(12)/----|
-6p0-\--/----/7\~~~------------------------------------------|
------\/-----------------------------------------------------|
-------------------------------------------------------------|
-------------------------------------------------------------|
vib. w/bar>>>>>>>>>>>>>>>>>>>>>>>>>>>>>>>>>>>>>>>>>>>>>>>>>>
     1 1/4             full bend
------_/~~~~\-------------/-------------------------------|
-(12)/-------\(12)\9--(9)/--------15p13-15p13\12p9/16p13--|
----------------------------------------------------------|
----------------------------------------------------------|
----------------------------------------------------------|
----------------------------------------------------------|
>>>>>>>>>>>>>>

---------------------------------------------------------|
-12p9/18p13-(13)-18p13-12p9/16p13-16p13-12p9/15p13-15p13-|
---------------------------------------------------------|
---------------------------------------------------------|
---------------------------------------------------------|
---------------------------------------------------------|

-------------------------------------------------------------|
-12p9-16p13-16p13-12p9/18p13-18p13-12p9/16p13-16p13-12p9-----|
-------------------------------------------------------------|
-------------------------------------------------------------|
---------------------------------------------------------0\--|
-----------------------------------------------------------\-|
                                                         slack

The kick ass 2 Gtr. part!!!!!!!
New Backup riff:
 Keep struming an F5 then play one Gb5, repeat throughout
 (listen to the album to get rythm, obviously)
|---------------------------------------------------|
|---------------------------------------------------|
|---------------------------------------------------|
|-------------------------------------------18------|
|----------------18----18-20-18-20-21-20-21----21---|
|-18-19-22-19-22----22------------------------------|
|                                                   |
|---------------------------------------------------|
|---------------------------------------------------|
|---------------------------------------------------|
|-------------------------------------------13------|
|----------------13----13-15-13-15-16-15-16----16---|
|-13-14-17-14-17----17------------------------------|

|----------------------------------------------------------|
|----------------------------------------18----18-19-18-19-|
|----------------------19----19-20-19-20----20-------------|
|-18-20-18-20-21-20-21----21-------------------------------|
|----------------------------------------------------------|
|----------------------------------------------------------|
|                                                          |
|----------------------------------------------------------|
|----------------------------------------13----13-14-13-14-|
|----------------------14----14-15-14-15----15-------------|
|-13-15-13-15-16-15-16----16-------------------------------|
|----------------------------------------------------------|
|----------------------------------------------------------|

|----------18----18--19-22-22-22-22-22-22-18-18-18-18-18-18-|
|-21-19-21----21--------------------------------------------|
|-----------------------------------------------------------|
|-----------------------------------------------------------|
|-----------------------------------------------------------|
|-----------------------------------------------------------|
|                                                           |
|----------13----13--14-17-17-17-17-17-17-13-13-13-13-13-13-|
|-16-14-16----16--------------------------------------------|
|-----------------------------------------------------------|
|-----------------------------------------------------------|
|-----------------------------------------------------------|
|-----------------------------------------------------------|

                           gradual bend> /
|-19-19-19-19-19-19-22-22-22-22-22-22-23/---|
|-------------------------------------------|
|-------------------------------------------|
|-------------------------------------------|
|-------------------------------------------|
|-------------------------------------------|
|                                           |
|                          gradual bend> /  |
|-14-14-14-14-14-14-17-17-17-17-17-17-18/---|
|-------------------------------------------|
|-------------------------------------------|
|-------------------------------------------|
|-------------------------------------------|
|-------------------------------------------|

Backup:
Hold E5 chord                      / full bend
|-17--16--15--------------17--(17)/--~~~~~~----|
|-------------17-------------------------------|
|-----------------17--16-----------------------|
|----------------------------------------------|
|----------------------------------------------|
|----------------------------------------------|
|                                              |
|----------------------------------/full bend--|
|-15--14--13--------------15--(15)/--~~~~~~----|
|-------------14-------------------------------|
|-----------------15--14-----------------------|
|----------------------------------------------|
|----------------------------------------------|


At end of song, hold Ab5 (6th string, 4th fret) while drums
and bass do some thing, then play these chords to end
the song:
5|--9--6-5--|
6|--7--4-3--|

4.                                      EXPENDABLE YOUTH

 Intro
    Q=111
   4/4
    Gtrs I, II
    PM----|     PM----|    PM|     PM----|     PM----|    PM|
    S S S S a E S S S S  E S S E   S S S S a E S S S S  E S S  E
||-------------------------------|-------------------------------|
||o------------------------------|-------------------------------|
||-------------------------------|-------------------------------|
||----------------------10-----8-|---------------------12-----11-|
||o---------5h7----------8-----6-|---------5h7---------10------9-|
||--0-0---0---0-0-0---0----0-0---|-0-0---0---0-0-0---0----0-0----|


  PM----|     PM----|    PM|     PM----|     PM----|   PM|
  S S S S a E S S S S  E S S E   S S S S a E S S S S E S S E  4x
|------------------------------|------------------------------||
|------------------------------|-----------------------------o||
|------------------------------|------------------------------||
|---------------------10-----8-|------------------------------||
|---------5h7----------8-----6-|---------5h7---------5-----4-o||
|-0-0---0---0-0-0---0----0-0---|-0-0---0---0-0-0---0-3-0-0-2--||


    PM----|      PM----|          PM----|      PM----|
    S S S S a Q  S S S S  S S E   S S S S a Q  S S S S  S  S  E
||------------------------------|-------------------------------|
||o-----------------------------|-------------------------------|
||------------------------------|-------------------------------|
||-----------------------10-9-8-|----------------------12-11-10-|
||o---------5h7-----------8-7-6-|---------5h7----------10--9--8-|
||--0---0-0---0--0---0-0--------|-0---0-0---0--0---0-0----------|


  PM----|      PM----|          PM----|      PM----|
  S S S S a Q  S S S S  S S E   S S S S a Q  S S S S S S E
|-----------------------------|-----------------------------||
|-----------------------------|----------------------------o||
|-----------------------------|-----------------------------||
|----------------------10-9-8-|-----------------------------||
|---------5h7-----------8-7-6-|---------5h7----------5-4-3-o||
|-0---0-0---0--0---0-0--------|-0---0-0---0--0-0-0-0-3-2-1--||


   Verse1 & 2
    PM----|      PM----|          PM----|      PM----|
    S S S S a Q  S S S S  S S E   S S S S a Q  S S S S  S  S  E
||------------------------------|-------------------------------|
||o-----------------------------|-------------------------------|
||------------------------------|-------------------------------|
||-----------------------10-9-8-|----------------------12-11-10-|
||o---------5h7-----------8-7-6-|---------5h7----------10--9--8-|
||--0---0-0---0--0---0-0--------|-0---0-0---0--0---0-0----------|


  PM----|      PM----|          PM----|      PM----|
  S S S S a Q  S S S S  S S E   S S S S a Q  S S S S S S E
|-----------------------------|----------------------------|
|-----------------------------|----------------------------|
|-----------------------------|----------------------------|
|----------------------10-9-8-|----------------------------|
|---------5h7-----------8-7-6-|---------5h7----------5-4-3-|
|-0---0-0---0--0---0-0--------|-0---0-0---0--0-0-0-0-3-2-1-|


  PM----|      PM----|          PM----|      PM----|
  S S S S a Q  S S S S  S S E   S S S S a Q  S S S S  S  S  E
|-----------------------------|-------------------------------|
|-----------------------------|-------------------------------|
|-----------------------------|-------------------------------|
|----------------------10-9-8-|----------------------12-11-10-|
|---------5h7-----------8-7-6-|---------5h7----------10--9--8-|
|-0---0-0---0--0---0-0--------|-0---0-0---0--0---0-0----------|


  PM----|      PM----|          PM----|      PM----|
  S S S S a Q  S S S S  S S E   S S S S a Q  S S S S S S E
|-----------------------------|----------------------------||
|-----------------------------|----------------------------||
|-----------------------------|----------------------------||
|----------------------10-9-8-|----------------------------||
|---------5h7-----------8-7-6-|---------5h7----------5-4-3-||
|-0---0-0---0--0---0-0--------|-0---0-0---0--0-0-0-0-3-2-1-||


 Chorus
               PM----------------|   PM|
  H.      Q    S S S S S S S S S S E S S E
|------------|-----------------------------|
|------------|-----------------------------|
|------------|-----------------------------|
|------------|-----------------------------|
|-4-------5--|---------------------5-----5-|
|-2-------3--|-0-0-0-0-0-0-0-0-0-0-3-0-0-3-|


               PM----------------|   PM|
  H.      Q    S S S S S S S S S S E S S E
|------------|-----------------------------|
|------------|-----------------------------|
|------------|-----------------------------|
|---------3--|-----------------------------|
|-4-------1--|---------------------2-----3-|
|-2----------|-0-0-0-0-0-0-0-0-0-0-0-0-0-1-|


               PM----------------|   PM|
  H.      Q    S S S S S S S S S S E S S E
|------------|-----------------------------|
|------------|-----------------------------|
|------------|-----------------------------|
|------------|-----------------------------|
|-4-------5--|---------------------5-----5-|
|-2-------3--|-0-0-0-0-0-0-0-0-0-0-3-0-0-3-|


  1.
                 PM----|     PM----|    PM|     PM----|     PM----|    PM|
  H    Q  E E    S S S S a E S S S S  E S S E   S S S S a E S S S S  E S S  E
|-------------||------------------------------|--------------------------------|
|-------------||------------------------------|--------------------------------|
|-------------||------------------------------|--------------------------------|
|-------------||---------------------10-----8-|---------------------12-----11--|
|-4----7--6-5-||---------5h7----------8-----6-|---------5h7---------10------9--|
|-2----5--4-3-||-0-0---0---0-0-0---0----0-0---|-0-0---0---0-0-0---0----0-0-----|


  PM----|     PM----|    PM|     PM----|     PM----|   PM|
  S S S S a E S S S S  E S S E   S S S S a E S S S S E S S E
|------------------------------|-----------------------------|
|------------------------------|-----------------------------|
|------------------------------|-----------------------------|
|---------------------10-----8-|-----------------------------|
|---------5h7----------8-----6-|---------5h7---------5-----4-|
|-0-0---0---0-0-0---0----0-0---|-0-0---0---0-0-0---0-3-0-0-2-|


  PM----|     PM----|    PM|     PM----|     PM----|    PM|
  S S S S a E S S S S  E S S E   S S S S a E S S S S  E S S  E
|------------------------------|-------------------------------|
|------------------------------|-------------------------------|
|------------------------------|-------------------------------|
|---------------------10-----8-|---------------------12-----11-|
|---------5h7----------8-----6-|---------5h7---------10------9-|
|-0-0---0---0-0-0---0----0-0---|-0-0---0---0-0-0---0----0-0----|


  PM----|     PM----|    PM|     PM----|     PM----|   PM|
  S S S S a E S S S S  E S S E   S S S S a E S S S S E S S E
|------------------------------|------------------------------||
|------------------------------|-----------------------------o||
|------------------------------|------------------------------||
|---------------------10-----8-|------------------------------||
|---------5h7----------8-----6-|---------5h7---------5-----4-o||
|-0-0---0---0-0-0---0----0-0---|-0-0---0---0-0-0---0-3-0-0-2--||


  2.
                       PM|          PM|
  H.      S E.     S S S S S E. S S S S S S  E
|--------------||------------------------------|
|--------------||o-----------------------------|
|--------------||------------------------------|
|--------------||------------------------------|
|-4-------5-7--||o---------7-8----------7-8-10-|
|-2-------3-5--||--0---0-0------0---0-0--------|


      PM|
  S S S S S S E S S S S S S S S
|--------------------------------|
|--------------------------------|
|--------------------------------|
|-------------7-6-5-4------------|
|---------7-8---------6-5--------|
|-0---0-0-----------------8-7-6--|


                               1.
      PM|          PM|              PM|
  S S S S S E. S S S S S S  E   S S S S S S E S S S S S S E
|-----------------------------|------------------------------||
|-----------------------------|-----------------------------o||
|-----------------------------|------------------------------||
|-----------------------------|-------------7-6-5-4-------8--||
|---------7-8----------7-8-10-|---------7-8---------6-5-4---o||
|-0---0-0------0---0-0--------|-0---0-0----------------------||


  2.
      PM|
  S S S S S S E S S S S S S S S
|-------------------------------||
|-------------------------------||
|-------------------------------||
|-------------7-6-5-4-----------||
|---------7-8---------5-4-3-----||
|-0---0-0-------------------4-3-||


 Guitar Solo
  Gtr III
                                         /2\
               ~~~~~
   Q           Q           Q             Q
|--------------------------------------------------|
|-21b22-------21b22-------21b22---------21---------|
|-21b23-------21b23-------21b23---------21---------|
|--------------------------------------------------|
|--------------------------------------------------|
|--------------------------------------------------|
|
| Gtrs I, II
|       PM--------------|           PM--------------
|  S    S S S  S    S S S  S     S  S S  S   S S S
|--------------------------------------------------|
|--------------------------------------------------|
|--------------------------------------------------|
|--------------------------------------------------|
|--4-----------------------4----(4)----------------|
|--2----2-2-2--2----2-2-2--0h====2--2-2--2---2-2-2-|


 Guitar Solo
    /2\        /     \0.5______/
                                       ~~~~~~~~~~ PM---|
   +Q          E    +E        +E      +E     +S   S  S  S
|---------------------------------------------------------|
|-(21)--------21---(21)------(21)----(21)---(21)----------|
|-(21)--------21---(21)------(21)-------------------------|
|---------------------------------------------------------|
|---------------------------------------------------------|
|------------------------------------------------12-15-12-|
|
|--------------------------|           PM--------|
|   S   S S S  S S   S     S   S  S    S  S   S   S  E
|---------------------------------------------------------|
|---------------------------------------------------------|
|---------------------------------------------------------|
|----------------------------------------------------3----|
|------------------------------4-(4)-----------------1----|
|---2---2-2-2--2-2---2-----2---0h=2----2--2---2---2-------|


   PM|
               |--------5--------|  |----3----|
   S  S  S  S  S  S    S    S    S  S  S      S  S  S  S      a       +E     S
|------------------------------------------------------------------------------|
|------------------------------------------------------------------------------|
|-----------------------------------------------12h14-14b17r(14)b17==(14)r-----|
|---------------------12h==13h==14-12h13h====14--------------------------------|
|----12-15p12-15p12----------------------------------------------------------x-|
|-15---------------------------------------------------------------------------|
|
|     PM----------------------|                  PM-----------------------------
|  S  S  S  S  S    S    S    S     S     S      S  S  S               S   S S
|------------------------------------------------------------------------------|
|------------------------------------------------------------------------------|
|------------------------------------------------------------------------------|
|------------------------------------------------------------------------------|
|--4--------------------------------4----(4)-----------------------------------|
|--2--2--2--2--2----2----2----2-----0h====2------2--2--2---------------2---2-2-|


                                              /1___\1___/   \2
    Q.                +E           +E         S   +S   +S  +S  +E
|------------------------------------------------------------------|
|------------------------------------------------------------------|
|-[14]b16r==========([14])b17====([14])r\-----0---(0)--(0)-(0)-(0)-|
|------------------------------------------------------------------|
|------------------------------------------------------------------|
|------------------------------------------------------------------|
|
|------------------------------|              PM-----------|
|   S     S S S S S    S       S    S      S  S    S    S   S   E
|------------------------------------------------------------------|
|------------------------------------------------------------------|
|------------------------------------------------------------------|
|------------------------------------------------------------------|
|-----------------------------------4-----(4)-------------------5--|
|---2-----2-2-2-2-2----2-------2----0h=====2--2----2----2---2---3--|


                        |--3--| |------5------|
  S S S S S S S S S  S  S S   S S S   S   S   S
|-----------------------------------------------|
|-----------------------------------------------|
|-----------------------------------------------|
|-----------------------------7-------7h==8h==9-|
|-------2-----5h7-------8h9-----7h9-------------|
|-0h3-5---5h7-----7h10--------------------------|
|
|   PM----------|       PM-----------------------
| S S S S S S S S S  S  S   S   S   S   S   S
|-----------------------------------------------|
|-----------------------------------------------|
|-----------------------------------------------|
|-----------------------------------------------|
|-4---------------4-(4)-------------------------|
|-2-2-2-2-2-2-2-2-0h=2--2---2---2---2---2---2---|


                                 /1\  /1\  /1\  /1\
  |--3--|                                           |-----6-----|
  S S   S S  S       +Q          S   +S   +S   +S   S S   S S S S
|-----------------------------------------------------------------|
|-----------------------------------------------------------------|
|---------7-[9]b11==([9])r-------9---(9)--(9)--(9)----------------|
|-7h8h==9---------------------------------------------------------|
|-----------------------------------------------------------------|
|---------------------------------------------------5h7h==9-5h7h9-|
|
|------------------------------|           PM-----------|
| S   S   S  S        S    S S S S    S    S    S   S   S   E
|-----------------------------------------------------------------|
|-----------------------------------------------------------------|
|-----------------------------------------------------------------|
|-----------------------------------------------------------3-----|
|--------------------------------4---(4)--------------------1-----|
|-2---2---2--2--------2----2-2-2-0h===2----2----2---2---2---------|


  |-------6-------| |------6-------| |---------6---------| |--------6--------|
  S S    S S S    S S S   S S S    S S  S      S S  S    S S  S   S  S  S    S
|------------------------------------------------------------------------------|
|------------------------------------------------------------------------------|
|----------------------------------------------------------9h11p==9S12h14p==12-|
|---------------------------7h9h==11-9h11h====12-9h11h==12---------------------|
|-------------------7h9---9----------------------------------------------------|
|-7h9h==10-7h9h==10------------------------------------------------------------|
|
|     PM------------------------|                PM-----------------------------
| S   S    S   S    S   S   S   S    S     S     S    S    S    S    S    S
|------------------------------------------------------------------------------|
|------------------------------------------------------------------------------|
|------------------------------------------------------------------------------|
|------------------------------------------------------------------------------|
|-4----------------------------------4----(4)----------------------------------|
|-2---2----2---2----2---2---2---2----0h====2-----2----2----2----2----2----2----|


                           /1\
   Q.              +E     +E        +Q.
|--------------------------------------------|
|-15--------------(15)---(15)------(15)------|
|-14b16r==========(14)---(14)------(14)------|
|--------------------------------------------|
|--------------------------------------------|
|--------------------------------------------|
|
|----------------------|             PM-|
|  S    S S S S S   S  S   S    S    S  S Q
|--------------------------------------------|
|--------------------------------------------|
|--------------------------------------------|
|--------------------------------------------|
|--------------------------4---(4)--------5--|
|--2----2-2-2-2-2---2--2---0h===2----2--2-3--|


   /1\              /1\  /1.5\  \1.5
   Q          +E    S   +S     +Q..              S
|--------------------------------------------------|
|--------------------------------------------------|
|-12---------(12)---0---(0)----(0)---------------0s|
|--------------------------------------------------|
|--------------------------------------------------|
|--------------------------------------------------|
|
|  PM-------------------|              PM-----------
|  S   S S S   S  S S    S      S    S S S S S S S
|--------------------------------------------------|
|--------------------------------------------------|
|--------------------------------------------------|
|--------------------------------------------------|
|--------------------------------------------------|
|--5---5-5-5---5--5-5----5------3h===5-5-5-5-5-5-5-|


   \2.5           /1\  /1\  \2.5
   ~~~~~
   Q.             S   +S   +H
|---------------------------------------------|
|---------------------------------------------|
|-17--------------0---(0)--(0)----------------|
|---------------------------------------------|
|---------------------------------------------|
|---------------------------------------------|
|
|---------------------|            PM----|
|  S    S S S S S S    S    S    S S S S S E
|---------------------------------------------|
|---------------------------------------------|
|---------------------------------------------|
|------------------------------------------6--|
|------------------------------------------4--|
|--5----5-5-5-5-5-5----5----3h===5-5-5-5-5----|


  \3/     \5/   \3/     \2______\3____________| \5/         \5/         \3______\5________|
                                    ~~~~~~~~~                                         ~~~~~~
  |---------6---------| |----------7----------| |------------------11:8-------------------|
  S   S   S   S S     S S   S   S   S   S S   S S   S   S   S   S   S   S     S S     S   S
|-------------------------------------------------------------------------------------------|
|-------------------------------------------------------------------------------------------|
|-7p==5p==0h==7p5p====0h7p==5p==0h==7p==5p0h==7p5p==0h==7p==5p==0h==7p==5p====0h7p====5p==0-|
|-------------------------------------------------------------------------------------------|
|-------------------------------------------------------------------------------------------|
|-------------------------------------------------------------------------------------------|
|
| PM----------------------------------------|             PM----------------------------|
| S     S     S     S   S     S       S     S   S     S   S       S   S     S       S   S
|-------------------------------------------------------------------------------------------|
|-------------------------------------------------------------------------------------------|
|-------------------------------------------------------------------------------------------|
|-------------------------------------------------------------------------------------------|
|-------------------------------------------------------------------------------------------|
|-5-----5-----5-----5---5-----5-------5-----5---3h====5---5-------5---5-----5-------5---5---|


  \5___________|          /1\   /1\   /1\   /1\   /1\
       ~~~~~~~~~~~
  S   +E.     +Q          T    +T    +T    +T    +E      +Q
|-----------------------------------------------------------------|
|-----------------------------------------------------------------|
|-0---(0)-----(0)-------/16---(16)--(16)--(16)--(16)----(16)\-----|
|-----------------------------------------------------------------|
|-----------------------------------------------------------------|
|-----------------------------------------------------------------|
|
| PM------------------|                           PM----------|
| S    S  S S  S  S S S   S           S           S   S   S   S E
|-----------------------------------------------------------------|
|-----------------------------------------------------------------|
|-----------------------------------------------------------------|
|-----------------------------------------------------------------|
|---------------------------------------------------------------8-|
|-5----5--5-5--5--5-5-5---3h==========5-----------5---5---5---5-6-|


  \7                \5________________/
  H                 Q..              +S
|------------------------------------------|
|------------------------------------------|
|------------------[5]--------------([5])--|
|------------------------------------------|
|------------------------------------------|
|-0----------------------------------------|
|
| PM-------------|        PM--------|
| S  S S S S S S S  S   S S S S S S   S
|------------------------------------------|
|------------------------------------------|
|------------------------------------------|
|------------------------------------------|
|------------------------------------------|
|-5--5-5-5-5-5-5-5--3h==5-5-5-5-5-5---5----|


                    \2.5
    ~~~~~~~~~~~~~~~~~~~~~
   +E      +E      +Q          H               Q        Q        Q       Q
|--------------------------------------------|------------------------------------|
|--------------------------------------------|-x\----------------x\---------------|
|-([5])---([5])---([5])----------------------|------------------------------------|
|--------------------------------------------|----------x/---------------x/-------|
|--------------------------------------------|----------x/---------------x/-------|
|--------------------------------------------|----------x/---------------x/-------|
|
|   PM-----------------------|     PM----|     PM--------------|     PM------------
|   S   S   S   S   S    S S S S S S S S S E   S  S S S S  S S S S S S S S  S S S
|--------------------------------------------|------------------------------------|
|--------------------------------------------|------------------------------------|
|--------------------------------------------|------------------------------------|
|------------------------------------------6-|------------------------------------|
|------------------------------------------4-|------------------------------------|
|---5---5---5---5---5----5-5-5-3h5-5-5-5-5---|-5--5-5-5-5--5-5-5-3h5-5-5-5--5-5-5-|


                                              ~~~~~~~~~~~
                     |----3-----|
  Q          +E     +S    +S    S   E        +E     +Q
|----------------------------------22b24====(22)---(22)r---||
|----------------------------------------------------------||
|-7b9========(7)r---(7)b9r(7)p==5\-------------------------||
|----------------------------------------------------------||
|----------------------------------------------------------||
|----------------------------------------------------------||
|
|-----------------------------|               PM-|
| S    S S S  S   S  S        S     S     S   S  S   Q
|----------------------------------------------------------||
|----------------------------------------------------------||
|----------------------------------------------------------||
|----------------------------------------------------------||
|----------------------------------------------------8-----||
|-5----5-5-5--5---5--5--------5-----3h====5---5--5---6-----||


 Chorus
  Gtrs I, II
               PM----------------|   PM|
  H.      Q    S S S S S S S S S S E S S E
|------------|-----------------------------|
|------------|-----------------------------|
|------------|-----------------------------|
|------------|-----------------------------|
|-4-------5--|---------------------5-----5-|
|-2-------3--|-0-0-0-0-0-0-0-0-0-0-3-0-0-3-|


               PM----------------|   PM|
  H.      Q    S S S S S S S S S S E S S E
|------------|-----------------------------|
|------------|-----------------------------|
|------------|-----------------------------|
|---------3--|-----------------------------|
|-4-------1--|---------------------2-----3-|
|-2----------|-0-0-0-0-0-0-0-0-0-0-0-0-0-1-|


               PM----------------|   PM|
  H.      Q    S S S S S S S S S S E S S E   H    Q  E E
|------------|-----------------------------|--------------||
|------------|-----------------------------|--------------||
|------------|-----------------------------|--------------||
|------------|-----------------------------|--------------||
|-4-------5--|---------------------5-----5-|-4----7--6-5--||
|-2-------3--|-0-0-0-0-0-0-0-0-0-0-3-0-0-3-|-2----5--4-3--||


 Riff
  PM----|     PM----|    PM|     PM----|     PM----|    PM|
  S S S S a E S S S S  E S S E   S S S S a E S S S S  E S S  E
|------------------------------|-------------------------------|
|------------------------------|-------------------------------|
|------------------------------|-------------------------------|
|---------------------10-----8-|---------------------12-----11-|
|---------5h7----------8-----6-|---------5h7---------10------9-|
|-0-0---0---0-0-0---0----0-0---|-0-0---0---0-0-0---0----0-0----|


  PM----|     PM----|    PM|     PM----|     PM----|   PM|
  S S S S a E S S S S  E S S E   S S S S a E S S S S E S S E
|------------------------------|-----------------------------||
|------------------------------|-----------------------------||
|------------------------------|-----------------------------||
|---------------------10-----8-|-----------------------------||
|---------5h7----------8-----6-|---------5h7---------5-----3-||
|-0-0---0---0-0-0---0----0-0---|-0-0---0---0-0-0---0-3-0-0-1-||


 Out-Chorus
               PM----------------|   PM|
  H.      Q    S S S S S S S S S S E S S E
|------------|-----------------------------|
|------------|-----------------------------|
|------------|-----------------------------|
|------------|-----------------------------|
|-4-------5--|---------------------5-----5-|
|-2-------3--|-0-0-0-0-0-0-0-0-0-0-3-0-0-3-|


               PM----------------|   PM|
  H.      Q    S S S S S S S S S S E S S E
|------------|-----------------------------|
|------------|-----------------------------|
|------------|-----------------------------|
|---------3--|-----------------------------|
|-4-------1--|---------------------2-----3-|
|-2----------|-0-0-0-0-0-0-0-0-0-0-0-0-0-1-|


               PM----------------|   PM|
  H.      Q    S S S S S S S S S S E S S E   E E Q  Q  S E.
|------------|-----------------------------|-----------------||
|------------|-----------------------------|-----------------||
|------------|-----------------------------|-----------------||
|------------|-----------------------------|-----------------||
|-4-------5--|---------------------5-----5-|-4---------5-7---||
|-2-------3--|-0-0-0-0-0-0-0-0-0-0-3-0-0-3-|-2---------3-5---||


   Outro
    Gtrs I, II
        PM|          PM|              PM|
    S S S S S E. S S S S S S  E   S S S S S S E S S S S S S S S
||------------------------------|-------------------------------|
||o-----------------------------|-------------------------------|
||------------------------------|-------------------------------|
||------------------------------|-------------7-6-5-4-----------|
||o---------7-8----------7-8-10-|---------7-8---------6-5-------|
||--0---0-0------0---0-0--------|-0---0-0-----------------8-7-6-|


                               1.
      PM|          PM|              PM|
  S S S S S E. S S S S S S  E   S S S S S S  E  S S S S S S E
|-----------------------------|---------------------------------||
|-----------------------------|--------------------------------o||
|-----------------------------|---------------------------------||
|-----------------------------|-------------[7]-6-5-4-------8---||
|---------7-8----------7-8-10-|---------7-8-----------6-5-4----o||
|-0---0-0------0---0-0--------|-0---0-0-------------------------||


  2.
      PM|
  S S S S S S E S S S S S S S S   S S S S S S S S E E Q
|-------------------------------|-------------------------*|
|-------------------------------|-------------------------*|
|-------------------------------|-------------------------*|
|-------------7-6-5-4-----------|-6-5-4-------------------*|
|---------7-8---------6-5-------|-------5-4-3-----2-------*|
|-0---0-0-----------------8-7-6-|-------------3-2-0-------*|

5.                                           DEAD SKIN MASK

Fig. 1a,
|-----------------------------------------------------|
|-----------------------------------------------------|
|-----------------------------------------------------|
|----------9---10-----------9---10-----------9---10---|
|------7----------------8----------------7------------|
|--0----------------0----------------0----------------|
   guitar 1

|-----------------------------------------------------|
|-----------------------------------------------------|
|---------------9~~-----------------------------------|
|------9---10---------------9---10-----------9---10---|
|--8--------------------7----------------8------------|
|-------------------0----------------0----------------|
                    guitar 2

|-----------------------------------------------------|
|-----------------------------------------------------|
|-----------------------------------------------------|
|----------9---10-------9---10---9~~------------------|
|------7------------8---------------------------------|
|--0--------------------------------------------------|
                                 End Fig. 1a
Play twice.

Fig. 1b  both guitars
|-----------------------------------------------------|
|-----------------------------------------------------|
|-----------------------------------------------------|
|----------9---10-----------9---10-----------9---10---|
|------7----------------8----------------7------------|
|--0----------------0----------------0----------------|

|-----------------------------------------------------|
|-----------------------------------------------------|
|---------------8~~-----------------------------------|
|------9---10---------------9---10-----------9---10---|
|--8--------------------7----------------8------------|
|-------------------0----------------0----------------|

|-----------------------------------------------------|
|-----------------------------------------------------|
|--------------------------------7~~------------------|
|----------9---10-------9---10------------------------|
|------7------------8---------------------------------|
|--0--------------------------------------------------|
                                 End Fig. 1
Play twice; second time omits last chord.

Lead-in               Fig. 2
|------------------||---------------------------------|
|------------------||---------------------------------|
|------------------||---------------------------------|
|--7-8-------------||-2-------1---------------2-------|
|--7-8-------------||-2-------1---------------2-------|
|--5-6-----3-1-0-1-||-0---0-0-----0-0-3-1-0-1-----0-0-|

|----------------------------------||
|----------------------------------||
|----------------------------------||
|----------3-------7-8-------------||
|----------3-------7-8-------------||
|--3-1-0-1-----0-0-5-6-----3-1-0-1-||
                                 End Fig. 2
Play four times.

Verses one and two are based on Fig. 2

Chorus one is basically the same as Fig. 1b

Fig. 3
|------------------------------------------------------|
|------------------------------------------------------|
|----------------------7-------------------------------|
|--2---------9---8-------8-----2---------9---8---3---5-|
|--2-------7---------------9---2-------7---------3---5-|
|--0---0-0---------------------0---0-0-----------1---3-|

Play four times.

Solo part is like the verses.

Fig. 4
|------------------------------------------------------|
|------------------------------------------------------|
|------------------------------------------------------|
|--2-------------------0-------2-----------------3---5-|
|--2---------2---1-------1-----2---------2---1---3---5-|
|--0---0-0-0---------------2---0---0-0-0---------1---3-|

Play four times.

Fig. 5
|------------------------------------------------------|
|------------------------------------------------------|
|------------------------------------------------------|
|--2-------1---------------2---------------3-------7-8-|
|--2-------1---------------2---------------3-------7-8-|
|--0---0-0-----0-0-0-0-0-0-----0-0-0-0-0-0-----0-0-5-6-|

|--------------|
|--------------|
|--------------|
|--------------|
|--------------|
|--3-1-0-1-----|
         End Fig. 5

6.                                             HALLOWED POINT


Intro-
|-----------------|
|-----------------|
|-7-6-----5-4---3-|
|-7-6-7-6-5-4---3-|
|-5-4-7-6-3-2-3-1-|
|-----5-4-----3---|

Verse riff-
|--------------------------------------------|
|--------------------------------------------|
|--------------------------------------------|
|--------------------------------------------|
|------3p2----------------3p2----------------|
|-2222-----22222222222222-----22-5p2-22-3-5--|
pm----     --------------     --     --------|

-----------------------------------------|
-----------------------------------------|
-----------------------------------------|
-----------------------------------------|
------3p2----------------3p2--------3----|
-2222-----22222222222222-----222222-3----|
pm---     --------------     ------------|

Fill-
|---------|
|---------|
|-5-4---3-|
|-5-4---3-|
|-3-2-3-1-|
|-----3---|

Chorus-
|---------------------------------------------|
|---------------------------------------------|
|---------------------------------------------|
|---------------------------------------------|
|------5p2p0----------------5p2p0----0--2--3--|
|-0000-------00000000000000-------00----------|
pm----       --------------       ------------|

------------------------------------------------|
------------------------------------------------|
------------------------------------------------|
--------------------------------------2-----1---|
--------5p2p0----------------5p2p0-------3------|
-000000-------00000000000000-------00-----------|
pm-----       --------------       -------------|

2nd time thru, skip to Coda instead of riff below

-------------------------|
-------------------------|
-------------------------|
----------------------8--|
--------5p2p0---------8--|
-000000-------000000--6--|

1st Guitar Solo-
Backup riff
|-----------------------------------------------|
|o----------------------------------------------|
|-----------------------------------------------|
|-----------------------------------------------|
|o-------6p5----------------6p5-----------------|
|---5555-----55555555555555-----55-8p5-55-6-8---|
  pm----     --------------     --     ---------|

----------------------|-----------------------|
---------------------o|-----------------------|
----------------------|-----------------------|
----------------------|-----------------------|
------6p5------------o|------6p5---------8----|
-5555-----5555555555--|-5555-----555555--6----|
pm---     ----------    ----     -------------|

|----24p21----21----------------24p21----21----------|
|-23-------23----23p21h23p21h23-------23----23p21h23-|
|----------------------------------------------------|
|----------------------------------------------------|
|----------------------------------------------------|
|----------------------------------------------------|

                                                /
-24p21----21----------24p23p21----21--------18//-|
-------23----23p21h23----------23----23p21--21/--|
-------------------------------------------------|
-------------------------------------------------|
-------------------------------------------------|
-------------------------------------------------|

    /\  /                             1 1/4
-18//\\//----------------------------------full-------|
-21/--\/--(21)\-18h21p18h21p18----------/\--/\--------|
-------------------------------20p18-20/--\/--\(20)\--|
------------------------------------------------------|
------------------------------------------------------|
------------------------------------------------------|

---------------------------------------------|
---------------------------------------------|
---------------------------------------------|
-------------------------------13------------|
-------13-------13-------13h15----15p13h15---|
-13h16----13h16----13h16---------------------|
pm-------------------------------------------|

------------------------------------------|
------------------------------------full--|
--------------------------------------/---|
-------13----15p13----13----13h15--15/----|
-13h15----15-------15----15---------------|
------------------------------------------|

----------------------------------------|
----------------------------------------|
----------------------------15h17p15h17-|
-15h16h17-15h16h17-15h16h17-------------|
----------------------------------------|
----------------------------------------|


   1 1/2
------------------------------------------------|
----/^-------------1-step-throughout------------|
-17/--^--------\/----\/--\/------(17)\--/(17)\--|
-------^------------------------------\/--------|
--------^2-1/2----------------------------------|
------------------------------------------------|

Coda-                                          Alt. endings:
|----------------------------------------------------|---------|------|
|----------------------------------------------------|---------|------|
|----------------------------------------------------|---------|------|
|----------------------------------------------------|-8-------|-8\---|
|------10p9----8p9------------10p9----8p7----7-9-10--|----9--7-|-8\---|
|-0000------00-----0000000000------00-----00---------|---------|-6\---|
pm----      --     ----------      --     ----------------------------|

|------------------------------------------------------------------------|
|------------------------------------------------------------------------|
|------------------------------------------------------------------------|
|------------------------------------------------------------------------|
|----------5--------4-5---------------------------------------4-5--------|
|-22222222---222222-----222222222222-000000000000000033333333-----3333---|
pm--------   ------     -------------------------------------     -------|

|-----------------------|-------------------|
|o---------------------o|-------------------|
|-----------------------|-------------------|
|--4----4----2----5-----|-----------2--5----|
|o-4----4----2----5----o|-44444444--2--5----|
|--2-22-2-00-0-00-3-00--|-22222222--0--3----|
   pm--   --   --   --    ------------------|

|------------------------------------------------------------------|
|------------------------------------------------------------------|
|------------------------------------------------------------------|
|---3-------------------------------3------------------------------|
|-----4---5-4---4-3-------3-2---2-----4---5-4---4-3-------3-2------|
|-2-----2-----2-----0-2-3-----3---2-----2-----2-----0-2-3-----3-5--|
pm-     -     -     -----     -   -     -     -     -----     ---

------------------------------------------------------------------|
------------------------------------------------------------------|
------------------------------------------------------------------|
---3-------------------------------3------------------------------|
-----4---5-4---4-3-------3-2---2-----4---5-4-----3-2---2-1--------|
-2-----2-----2-----0-2-3-----3---2-----2-----0-2-----3-----2-0-1--|
 -     -     -     -----     -   -     -     ---     -     -----

Guitar Solo 4-
                                       A.H.
|--------------------------------------------|
|--------------------------------------------|
|-2/12--11~~~----------12~~~-(12)\7/12-11~~~-|
|-------------11-12-14-----------------------|
|--------------------------------------------|
|--------------------------------------------|


                Do this bend a few more times
                      /   /   /   /
----------15-14-12-12//12//12//12//--|
----------15-14-12-15/-15/-15/-15/---|
-------------------------------------|
-11-12-14----------------------------|
-------------------------------------|
-------------------------------------|


-----------------------------------------------|
-------------------------------------12-14-15--|
----------------------------11-12-14-----------|
-------------------11-12-14--------------------|
----------10-12-14-----------------------------|
-10-12-14--------------------------------------|
pm---------------------------------------------|


-12-14-15-17-17-17-19-19-19-19/---19--------|-~~~~\
--------------------------------------------|
--------------------------------------------|
--------------------------------------------|
--------------------------------------------|
--------------------------------------------|


-/17-17-19-21-21-19-17-17----------------------|
--------------------------20-19-17-------------|
----------------------------------19-18-18-16--|
-----------------------------------------------|
-----------------------------------------------|
-----------------------------------------------|


-----------------------------------|
-----------------------------------|
-----------------------------------|
-19-17-16--------------------------|
----------19-17-16-----------------|
-------------------19-17-15--14~~~-|


                              A.H.
-------------------------------------|
-------------------------------------|
-------------------------------11~~~-|
----------------------11-12-14-------|
----------14~~~-(14)\----------------|
-12-14-15----------------------------|
pm-

----------15-15-15-15-17-17-17-17-19-19-19-19-19-------|-~~~\
-14-15-17----------------------------------------------|
-------------------------------------------------------|
-------------------------------------------------------|
-------------------------------------------------------|
-------------------------------------------------------|

Ending thingy:
|------|
|------|
|------|
|-4-4\-|
|-4-4\-|
|-2-2\-|


7.                                            SKELETONS OF SOCIETY


Drum Intro and then:

e|-------------------------------------------------------------------------|
B|-------------------------------------------------------------------------|
G|-------------------------------------------------------------------------|
D|-------------------------------------------------------------------------|
A|---------------2-----------3--------3-------------2-----------3--------3-|
E|-15\-0-0-0-0---0--0--0--0--1--0--0--1---0-0-0-0---0--0--0--0--1--0--0--1-|
       P.M.................     P.M.      P.M.................     P.M.

e|-------------------------------------------------------------------------|
B|-------------------------------------------------------------------------|
G|-------------------------------------------------------------------------|
D|-------------------------------------------------------------------------|
A|------------2-----------3--------3-------------2-----------3--------3----|
E|--0-0-0-0---0--0--0--0--1--0--0--1---0-0-0-0---0--0--0--0--1--0--0--1----|
    P.M.................     P.M.      P.M.................     P.M.

e|-------------------------------------------------------------------------|
B|-------------------------------------------------------------------------|
G|-------------------------------------------------------------------------|
D|-------------------------------------------------------------------------|
A|------------6-----------7--------7-------------6-----------7--------7----|
E|--4-4-4-4---4--4--4--4--5--4--4--5---4-4-4-4---4--4--4--4--5--4--4--5----|
    P.M.................     P.M.      P.M.................     P.M.

Play this only once in the song:
e|-------------------------------------------------------------------------|
B|-------------------------------------------------------------------------|
G|-------------------------------------------------------------------------|
D|-------------------------------------------------------------------------|
A|------------2-----------3--------3-------------2-------------------------|
E|--0-0-0-0---0--0--0--0--1--0--0--1---0-0-0-0---0-------------------------|
    P.M.................     P.M.      P.M....

Play from the begining again with drums but dont play that stop^^
The begining is all verses but befor you play the first verse do a pick slide which i
tab but would be something like
e|-------------------------------------------------------------------------|
B|-------------------------------------------------------------------------|
G|-------------------------------------------------------------------------|
D|-------------------------------------------------------------------------|
A|--\\\\\\\\\\\\\\\\\\\\\\\\\\\\\\\\\\\\\\\\\\\\\\\\\\\\\\\\\\\\\\\\\\\\\--|
E|--/////////////////////////////////////////////////////////////////////--|

i dunno just put ur pick in between the strings and slide it to fret 1
at 0:55 play this ontp of the main riff
e|----------------------20/\/\/\/\/\/\/\/\/--/0----------------------------|
B|-------------------------------------------------------------------------|
G|-------------------------------------------------------------------------|
D|-------------------------------------------------------------------------|
A|-------------------------------------------------------------------------|
E|--0~~~~~~/\/\/\/\--------------------------------------------------------|
           Whammy..       Whammmy..........

continue to play the main riff but play this lead ontop at 1:12
e|-------------------------------------------------------------------------|
B|-------------------------------------------------------------------------|
G|--14b(16)-(16)-(16)-(16)r14----------------------------------------------|
D|-------------------------------------------------------------------------|
A|-------------------------------------------------------------------------|
E|-------------------------------------------------------------------------|

then that leads into the chorus which has two parts:
Chorus:
Guitar I:
e|-------------------------------------------------------------------------|
B|-------------------------------------------------------------------------|
G|--10~~~~10\9----8~~~---7~~~--------7^(9)-(9)-----------------------------|
D|----------------------------------------------7h8p7--5-------------------|
A|--------------------------------------------------------7/\/\/\/\/\/\/\--|
E|-------------------------------------------------------------------------|
                                                           Whammy........
Guitar II:
e|-------------------------------------------------------------------------|
B|-------------------------------------------------------------------------|
G|-------------------------------------------------------------------------|
D|-------------------------------------------------------------------------|
A|--8~~~~~8\7-----6~~~---5~~~~----------------2-----------3--------3-------|
E|--6~~~~~6\5-----4~~~---3~~~--------0-0-0-0--0--0--0--0--1--0--0--1-------|
                                     P.M................     P.M.

Guitar I:
e|-------------------------------------------------------------------------|
B|-------------------------------------------------------------------------|
G|-------------------------------------------------------------------------|
D|-------------------------------------------------------------------------|
A|-------------------------------------------------------------------------|
E|-------------------------------------------------------------------------|

Guitar II:
e|-------------------------------------------------------------------------|
B|-------------------------------------------------------------------------|
G|-------------------------------------------------------------------------|
D|-------------------------------------------------------------------------|
A|------------2-----------3--------3----8~~~~~~~8\7----6~~~~~---5----------|
E|--0-0-0-0---0--0--0--0--1--0--0--1----6~~~~~~~6\5----4~~~~~---3----------|
    P.M.................     P.M.

Guitar Solo: Jeff
Guitar II: plays this all through
e|-------------------------------------------------------------------------|
B|-------------------------------------------------------------------------|
G|-------------------------------------------------------------------------|
D|-------------------------------------------------------------------------|
A|---2~~~~~~~~~7--8~~~~~---2~~~~~~~~7---8~~~~~~----------------------------|
E|---0~~~~~~~~~5--6~~~~~---0~~~~~~~~5---6~~~~~~---5--0--1--0--5--0--1--0---|
                                                  P.M...................
Guitar I: Whammy everywhere
e|--14~~~~~~~~~~~/\/\/\/\/\/\/\/\/\/\--------------------------------------|
B|-------------------------------------------------------------------------|
G|--11~~~~~~~~~~~/\/\/\/\/\/\/\/\/\/\--(/13)^15~~~~~~~~~~~~~---------------|
D|-------------------------------------------------------------------------|
A|-------------------------------------------------------------------------|
E|-------------------------------------------------------------------------|

Guitar I:
e|-------------------------------------------------------------------------|
B|---------------------------------------------10h13p10-10h13p10-----------|
G|--13^(16)r13--13^(16)r13--13^(15)--13h15p13---------------------12h13p12-|
D|-------------------------------------------------------------------------|
A|-------------------------------------------------------------------------|
E|-------------------------------------------------------------------------|


Guitar I: This next part is scales which i dont know, but its pretty muffled so just
it like this realy aplm muted or something
e|-------------------------------------------------------------------------|
B|--------------------------------------------------------15------/\/\/\/--|
G|----------------------------12h13p12h13-------------12--14^(15)r/\/\/\/--|
D|----------------12h14p12h14-------------12h14p12h14----------------------|
A|--12h15p12h15------------------------------------------------------------|
E|-------------------------------------------------------------------------|

e|------------------------------------------------------------13^(15)/\/\--|
B|----------------------------------------12h14p12h14p12h14----------------|
G|----------------------------12h13p12h13----------------------------------|
D|----------------12h14p12h14----------------------------------------------|
A|--12h15p12h15------------------------------------------------------------|
E|-------------------------------------------------------------------------|
                                                              Whammy......

Now play verse 2 which is the same as the intro riff and verse 1
after that play the chorus again and then play this at 2:36

e|-------------------------------------------------------------------------|
B|-------------------------------------------------------------------------|
G|-------------------------------------------------------------------------|
D|------------------------------------------------------3---2----2-2-------|
A|------------------------------------------------------1---0----0-0-------|
E|-0-0-0-0-0-0-0-0-0-0-0-0-0-0-0-0-0-0-0-0-0-0-0-0-0-0---------------------|
   P.M................................................

e|-------------------------------------------------------------------------|
B|-------------------------------------------------------------------------|
G|-------------------------------------------------------------------------|
D|----------------------------3---2----2-2---2-2---------------------------|
A|----------------------------1---0----0-0---0-0---------------------------|
E|-0-0-0-0-0-0-0-0-0-0-0-0-0-----------------------------------------------|
   P.M......................

e|-------------------------------------------------------------------------|
B|-------------------------------------------------------------------------|
G|-------------------------------------------------------------------------|
D|----------------------------3---2----2-2---------------------------------|
A|----------------------------1---0----0-0---------------------------------|
E|-0-0-0-0-0-0-0-0-0-0-0-0-0-----------------------------------------------|
   P.M......................

e|-------------------------------------------------------------------------|
B|-------------------------------------------------------------------------|
G|-------------------------------------------------------------------------|
D|------------------------------------------------------3---2----2-2---2-2-|
A|------------------------------------------------------1---0----0-0---0-0-|
E|-0-0-0-0-0-0-0-0-0-0-0-0-0-0-0-0-0-0-0-0-0-0-0-0-0-0---------------------|
   P.M................................................

Guitar Solo 2: Kerry
Guitar II: plays verse and intro riff
Guitar I:
e|-------------------------------------------------------------------------|
B|-------------------------------------------------------------------------|
G|-------------------------------------------------------------------------|
D|--12^(14)--(14)-(14)-(14)-(14)--(14)--(14)-(14)r12--10-------------------|
A|--------------------------------------------------------12-13-15---------|
E|-------------------------------------------------------------------------|

Guitar I:
e|---------------------------------12-13---15-16--16h17p16----16h17p16-----|
B|---------------------------12-13-------------------------19----------19--|
G|---------------------12-13-----------------------------------------------|
D|---------------12-13-----------------------------------------------------|
A|---------12-13-----------------------------------------------------------|
E|--12-13------------------------------------------------------------------|
    P.M.................................

Guitar I:
e|---19h20p19----19h20p19-----21h22p21--18---14^(16)-14^(16)---14-15-20----|
B|------------22----------22-----------------------------------------------|
G|-------------------------------------------------------------------------|
D|-------------------------------------------------------------------------|
A|-------------------------------------------------------------------------|
E|-------------------------------------------------------------------------|

Guitar I:
e|---19h20p19-------------------------------------------------------12-13--|
B|--------------20-19--17-------------------------------------12-13--------|
G|------------------------------------------------------12-13--------------|
D|------------------------------------------------12-13--------------------|
A|----------------------------11-10~--------12-13--------------------------|
E|------------------------------------12-13--------------------------------|
                                      P.M.................................

Guitar I:
e|---14-15--17--18---18^(20)-----------------------------------------------|
B|-------------------------------------------------------------------------|
G|-------------------------------------------------------------------------|
D|-------------------------------------------------------------------------|
A|-------------------------------------------------------------------------|
E|-------------------------------------------------------------------------|

Guitar Solo 3: played by Jeff
Guitar II: plays this little riff that your all familiar with:
e|-------------------------------------------------------------------------|
B|-------------------------------------------------------------------------|
G|-------------------------------------------------------------------------|
D|-------------------------------------------------------------------------|
A|---2~~~~~~~~~7--8~~~~~---2~~~~~~~~7---8~~~~~~----------------------------|
E|---0~~~~~~~~~5--6~~~~~---0~~~~~~~~5---6~~~~~~---5--0--1--0--5--0--1--0---|
                                                  P.M...................

Guitar I: first note in sync with the last note of solo 2
e|----18^(20)-18^(20)--18^(20)r18-17-15/\/\/\------------------------------|
B|----------------------------------------------13-13--16--13-12-12--11----|
G|-------------------------------------------------------------------------|
D|-------------------------------------------------------------------------|
A|-------------------------------------------------------------------------|
E|-------------------------------------------------------------------------|

Guitar I:
e|-------------------------------------------------------------------------|
B|-11-11--14--11--15-15--14---------12h13p12--------12h13p12------12h13p12-|
G|---------------------------13h16------------13h16----------13h16---------|
D|-------------------------------------------------------------------------|
A|-------------------------------------------------------------------------|
E|-------------------------------------------------------------------------|

Guitar I:
e|----------------------------------------12h13p12-------------------------|
B|--17p16-14h16-13p12------------------------------13p12-------------------|
G|--------------------16p15--13h15p13---------------------13p12------------|
D|--------------------------------------------------------------12h13p12---|
A|-------------------------------------------------------------------------|
E|-------------------------------------------------------------------------|

Guitar I:
e|-------------------------------------------------------------------------|
B|-------------------13p12-------------------------------------------------|
G|-------------12h13-------13p12-------------------------------------------|
D|---12h13p12--------------------12h13--------------------------12h13p12---|
A|-------------------------------------12h13p12--------12h13p12------------|
E|-----------------------------------------------12h13---------------------|

Guitar I:
e|-------------------------------------------------------------------------|
B|---------------------------------------------------------------11p10-----|
G|--12h13p12--15^(17)r15^(17)r/\/\-----11h12p11---11~~~~~~11h12------------|
D|-------------------------------------------------------------------------|
A|-------------------------------------------------------------------------|
E|-------------------------------------------------------------------------|

Guitar I:
e|-------------------------------------------------------------------------|
B|---------------------10h11p10-------------------10h11-------12h13p12-----|
G|--11p10-------10h11-----------11p10-------10h11-------12h13--------------|
D|--------11h12-----------------------11h12--------------------------------|
A|-------------------------------------------------------------------------|
E|-------------------------------------------------------------------------|

Guitar I: 3:33
e|----------------------------------------------------------------15/\/\/\-|
B|---13p12-13p12-14p13-14p13-15p14-15p14-16p15-16p15-16p15-17^(19)---------|
G|-------------------------------------------------------------------------|
D|-------------------------------------------------------------------------|
A|-------------------------------------------------------------------------|
E|-------------------------------------------------------------------------|

Go back and play verse 3 now followed by chorus and finish on this riff:
e|-------------------------------------------------------------------------|
B|-------------------------------------------------------------------------|
G|-------------------------------------------------------------------------|
D|------------------------------------------------------3---2----2-2-------|
A|------------------------------------------------------1---0----0-0-------|
E|-0-0-0-0-0-0-0-0-0-0-0-0-0-0-0-0-0-0-0-0-0-0-0-0-0-0---------------------|
   P.M................................................

e|-------------------------------------------------------------------------|
B|-------------------------------------------------------------------------|
G|-------------------------------------------------------------------------|
D|----------------------------3---2----2-2---2-2---------------------------|
A|----------------------------1---0----0-0---0-0---------------------------|
E|-0-0-0-0-0-0-0-0-0-0-0-0-0-----------------------------------------------|
   P.M......................

e|-------------------------------------------------------------------------|
B|-------------------------------------------------------------------------|
G|-------------------------------------------------------------------------|
D|----------------------------3---2----2-2---------------------------------|
A|----------------------------1---0----0-0---------------------------------|
E|-0-0-0-0-0-0-0-0-0-0-0-0-0-----------------------------------------------|
   P.M......................

e|-------------------------------------------------------------------------|
B|-------------------------------------------------------------------------|
G|-------------------------------------------------------------------------|
D|------------------------------------------------------3---2----2-2---2-2-|
A|------------------------------------------------------1---0----0-0---0-0-|
E|-0-0-0-0-0-0-0-0-0-0-0-0-0-0-0-0-0-0-0-0-0-0-0-0-0-0---------------------|
   P.M................................................

e|-------------------------------------------------------------------------|
B|-------------------------------------------------------------------------|
G|-------------------------------------------------------------------------|
D|------------------------------------------------------3---2----2-2-------|
A|------------------------------------------------------1---0----0-0-------|
E|-0-0-0-0-0-0-0-0-0-0-0-0-0-0-0-0-0-0-0-0-0-0-0-0-0-0---------------------|
   P.M................................................

and at 4:32 play:
e|-------------------------------------------------------------------------|
B|-------------------------------------------------------------------------|
G|-------------------------------------------------------------------------|
D|------------------------------------------3--2-----------------3--2--3-3-|
A|------------------------------------------1--0-----------------1--0--1-1-|
E|-0-0-0-0-0-0-0-0-0-0-0-0-0-0-0-0-0-0-0-0-------5-0-1-0-5-0-1-0-----------|
   P.M....................................


8.                                           TEMPTATION

Intro
|--------------------------------------------------------------------------|
|--------------------------------------------------------------------------|
|--------------------------------------------------------------------------|
|--------3---------5----------------------------X2-------------------------|
|--------1---------3-------------------------------------------------------|
|-3p1p0-----3p1p0------3p1-00000-1p0-00000---------------------------------|
PM                         .....     .....

Verse (have your ever...)
|--------------------------------------------------------------------------|
|--------------------------------------------------------------------------|
|--------------------------------------------------------------------------|
|--------------------------------------------------------------------------|
|------4------------------------5---4--------------------------------------|
|-0-00-2--000-000-000-000--0-00-3-0-2--111-111-111-111---------------------|
PM. ..    ... ... ... ...  . ..   .    ... ... ... ...
|--------------------------------------------------------------------------|
|--------------------------------------------------------------------------|
|--------------------------------------------------------------------------|
|--------------------------------------------------------------------------|
|------4------------------------5---4--/trem pick\-------------------------|
|-0-00-2--000-000-000-000--0-00-3-0-2--3333-22222--------------------------|
PM. ..    ... ... ... ...  . ..   .    .... .....

Break          Interlude
|----------|---------------------------------------|
|----------|---------------------------------------|
|----------|---------------------------------------|
|-3-2------|-------------7/8-----5-4--7/8--12------|play this several times
|-1-0---5-4|-------------7/8-----5-4--7/8--10------|
|-------3-2|------0-000-------00-------------------|

For solo rythm play the Verse and  return to interlude them play:

|--------------------------------------------------------------------------|
|--------------------------------------------------------------------------|
|--------------------------------------------------------------------------|
|-12-11--------------------------------------------------------------------|
|-10-9-----3---------------3--------------3-----4/5-4--3-------------------|
|----------1-000-000-000-0-1-000-000-000--1-000-2/3-2--1-1-1-1-1-1-1-1-----|
PM           ... ... ... .   ... ... ...    ...        . . . . . . . .

End with these 2 chords
|----------------------------|
|----------------------------|
|----------------------------|
|---10-9---------------------|
|---8--7---------------------|
|----------------------------|

9.                                            BORN OF FIRE


Intro
  Q=184
 4/4
  Gtrs I, II
          PM----|        PM----|    PM----|      PM----|    PM----|
  H    Q  S S S S     Q  S S S S Q  S S S S   Q  S S S S Q  S S S S   3x
|-----------------||------------------------|-------------------------||
|-----------------||o-----------------------|------------------------o||
|-----------------||------------------------|-------------------------||
|-----------------||------------------------|-2----------5------------||
|-----------------||o-4----------3----------|-0----------3-----------o||
|---------5-3-2-0-||--2--5-3-2-0-1--5-3-2-0-|----5-3-2-0----5-3-2-0---||


     PM----|    PM----|      PM----|    PM|
  Q  S S S S Q  S S S S   Q  S S S S Q  E E
|-----------------------|-------------------||
|-----------------------|-------------------||
|-----------------------|-------------------||
|-----------------------|-2----------5------||
|-4----------3----------|-0----------3------||
|-2--5-3-2-0-1--5-3-2-0-|----5-3-2-0----0-2-||


    Verse 1 & 2
    PM--------------------------------------------------|
    E S S S S S S S S S S E E   E S S S S S S S S S S E E
||----------------------------|---------------------------|
||o---------------------------|---------------------------|
||----------------------------|---------------------------|
||----------------------------|---------------------------|
||o---------------------------|---------------------------|
||--3-2-2-2-2-2-2-2-2-2-2-0-2-|-5-2-2-2-2-2-2-2-2-2-2-0-2-|


  PM--------------------------|      PM----|    PM|
  E S S S S S S S S S S S S S S   Q  S S S S Q  E E
|-------------------------------|-------------------|
|-------------------------------|-------------------|
|-------------------------------|-------------------|
|-------------------------------|------------3------|
|-------------------------------|-5----------1------|
|-3-2-2-2-2-2-2-2-2-2-2-0-2-2-2-|-3--0-2-2-2----0-2-|


  PM--------------------------------------------------|
  E S S S S S S S S S S E E   E S S S S S S S S S S E E
|---------------------------|---------------------------|
|---------------------------|---------------------------|
|---------------------------|---------------------------|
|---------------------------|---------------------------|
|---------------------------|---------------------------|
|-3-2-2-2-2-2-2-2-2-2-2-0-2-|-5-2-2-2-2-2-2-2-2-2-2-0-2-|


  PM--------------------------|      PM----|    PM|
  E S S S S S S S S S S S S S S   Q  S S S S Q  E E
|-------------------------------|-------------------|
|-------------------------------|-------------------|
|-------------------------------|-------------------|
|-------------------------------|------------3------|
|-------------------------------|-5----------1------|
|-3-2-2-2-2-2-2-2-2-2-2-0-2-2-2-|-3--0-2-2-2----0-2-|


  PM--------------------------------------------------|
  E S S S S S S S S S S E E   E S S S S S S S S S S E E
|---------------------------|---------------------------|
|---------------------------|---------------------------|
|---------------------------|---------------------------|
|---------------------------|---------------------------|
|---------------------------|---------------------------|
|-3-2-2-2-2-2-2-2-2-2-2-0-2-|-5-2-2-2-2-2-2-2-2-2-2-0-2-|


  PM--------------------------|      PM----|    PM|
  E S S S S S S S S S S S S S S   Q  S S S S Q  E E
|-------------------------------|-------------------|
|-------------------------------|-------------------|
|-------------------------------|-------------------|
|-------------------------------|------------3------|
|-------------------------------|-5----------1------|
|-3-2-2-2-2-2-2-2-2-2-2-0-2-2-2-|-3--0-2-2-2----0-2-|


  PM--------------------------------------------------|
  E S S S S S S S S S S E E   E S S S S S S S S S S E E
|---------------------------|---------------------------|
|---------------------------|---------------------------|
|---------------------------|---------------------------|
|---------------------------|---------------------------|
|---------------------------|---------------------------|
|-3-2-2-2-2-2-2-2-2-2-2-0-2-|-5-2-2-2-2-2-2-2-2-2-2-0-2-|


                                 3/4
  PM--------------------------|      PM----|
  E S S S S S S S S S S S S S S   Q  S S S S Q
|-------------------------------|---------------||
|-------------------------------|---------------||
|-------------------------------|---------------||
|-------------------------------|------------3--||
|-------------------------------|-5----------1--||
|-3-2-2-2-2-2-2-2-2-2-2-0-2-2-2-|-3--0-2-2-2----||


 Pre-Chorus
 4/4
    PM--------------------------------------------|
                                                    |-3-|
  S S S S S S S S S S S S S S S S   S S S S S S S S Q Q Q
|---------------------------------|-----------------------|
|---------------------------------|-----------------------|
|---------------------------------|-----------------------|
|---------------------------------|-----------------------|
|-5-------------------------------|-----------------8-8-8-|
|-3-3-3-3-3-3-3-3-3-3-3-3-3-3-3-3-|-3-3-3-3-3-3-3-3-6-6-6-|


    PM------------------------------------------------------------|
  S S S S S S S S S S S S S S S S   S S S S S S S S S S S S S S S S
|---------------------------------|----------------------------------|
|---------------------------------|----------------------------------|
|---------------------------------|----------------------------------|
|---------------------------------|----------------------------------|
|-4-------------------------------|----------------------------------|
|-2-2-2-2-2-2-2-2-2-2-2-2-2-2-2-2-|-2-2-2-2-2-2-2-2-2-2-2-2-2-2-2-2--|


    PM--------------------------------------------|
                                                    |-3-|
  S S S S S S S S S S S S S S S S   S S S S S S S S Q Q Q
|---------------------------------|-----------------------|
|---------------------------------|-----------------------|
|---------------------------------|-----------------------|
|---------------------------------|-----------------------|
|-5-------------------------------|-----------------8-8-8-|
|-3-3-3-3-3-3-3-3-3-3-3-3-3-3-3-3-|-3-3-3-3-3-3-3-3-6-6-6-|


    PM------------------------------------------------------------|
  S S S S S S S S S S S S S S S S   S S S S S S S S S S S S S S S S
|---------------------------------|----------------------------------||
|---------------------------------|----------------------------------||
|---------------------------------|----------------------------------||
|---------------------------------|----------------------------------||
|-4-------------------------------|----------------------------------||
|-2-2-2-2-2-2-2-2-2-2-2-2-2-2-2-2-|-2-2-2-2-2-2-2-2-2-2-2-2-5-3-2-0--||


 Chorus
     PM----|    PM----|      PM----|    PM----|
  Q  S S S S Q  S S S S   Q  S S S S Q  S S S S
|-----------------------|-----------------------|
|-----------------------|-----------------------|
|-----------------------|-----------------------|
|-----------------------|-2----------5----------|
|-4----------3----------|-0----------3----------|
|-2--5-3-2-0-1--5-3-2-0-|----5-3-2-0----5-3-2-0-|


     PM----|    PM----|      PM----|    PM----|
  Q  S S S S Q  S S S S   Q  S S S S Q  S S S S
|-----------------------|-------------------------|
|-----------------------|-------------------------|
|-----------------------|-------------------------|
|-----------------------|-2----------5------------|
|-4----------3----------|-0----------3------------|
|-2--5-3-2-0-1--5-3-2-0-|----5-3-2-0----5-3-2-0---|


     PM----|    PM----|      PM----|    PM----|
  Q  S S S S Q  S S S S   Q  S S S S Q  S S S S
|-----------------------|-----------------------|
|-----------------------|-----------------------|
|-----------------------|-----------------------|
|-----------------------|-2----------5----------|
|-4----------3----------|-0----------3----------|
|-2--5-3-2-0-1--5-3-2-0-|----5-3-2-0----5-3-2-0-|


                         1.
     PM----|    PM----|      PM----|    PM----|
  Q  S S S S Q  S S S S   Q  S S S S Q  S S S S
|-----------------------|--------------------------||
|-----------------------|-------------------------o||
|-----------------------|--------------------------||
|-----------------------|-2----------5-------------||
|-4----------3----------|-0----------3------------o||
|-2--5-3-2-0-1--5-3-2-0-|----5-3-2-0----5-3-2-0----||


 Guitar Solo I
  2.
  Gtr III
                                            ~~~~~
  H          E  E  E    E       Q          +Q          Q           +E.    S
|---------------------------||----------------------------------------------|
|----------------------12---||-15b17======(15)r-------15b18r======(15)p==12-|
|------------7s12h14--------||----------------------------------------------|
|---------------------------||----------------------------------------------|
|---------------------------||----------------------------------------------|
|---------------------------||----------------------------------------------|
|
| Gtrs I, II
|    PM----|       PM--------------------------------------------------------
| Q  S S S S Q     S S  S S     E     S S   S   S S S  S    S S S   E  E
|---------------------------||----------------------------------------------|
|---------------------------||----------------------------------------------|
|---------------------------||----------------------------------------------|
|-2----------5--------------||----------------------------------------------|
|-0----------3--------------||----------------------------------------------|
|----5-3-2-0-------5-3--2-0-||--3-----2-2---2---2-2-2--2----2-2-2---0--2----|


                   ~~~~~~~~~~~~~~~~~
   S     +S   E    Q            +Q.          +E
|---------------------------------------------------|
|---------------------------------------------------|
|-14b16r(14)p12---14b16========(14)---------(14)r\--|
|---------------------------------------------------|
|---------------------------------------------------|
|---------------------------------------------------|
|
|-------------------------------------------|
|  E          S S  S     S S S   S  S S S E   E
|---------------------------------------------------|
|---------------------------------------------------|
|---------------------------------------------------|
|---------------------------------------------------|
|---------------------------------------------------|
|--5----------2-2--2-----2-2-2---2--2-2-2-0---2-----|


   PM-----|
   |---3---|    |----3----|    |----3----|    |----3----|
   E  E    E    E    E    E    E    E    E    E    E    E
|-----------------------------------------------------------|
|-----------------------------------------------------------|
|-----------------------------------------------------------|
|--------------------------------------------12--------12---|
|--------------10--------10---14---12---14--------14--------|
|-12-10---12--------12--------------------------------------|
|
|  PM-----------------------------------------------------|
|  E    S    S  S S    S    S  S S    S    S  S S    S    S
|-----------------------------------------------------------|
|-----------------------------------------------------------|
|-----------------------------------------------------------|
|-----------------------------------------------------------|
|-----------------------------------------------------------|
|--3----2----2--2-2----2----2--2-2----2----2--0-2----2----2-|


   E  E  E    E    E  E  E       +S   +S
|-------------------------------------------|
|-------------------------------------------|
|------------12------12-14b16.5r(14)-(14)\--|
|-14-12-14--------14------------------------|
|-------------------------------------------|
|-------------------------------------------|
|
|        PM-----|        PM-----|
|  Q     S S  S S  Q     E        E
|-------------------------------------------|
|-------------------------------------------|
|-------------------------------------------|
|------------------3------------------------|
|--5---------------1------------------------|
|--3-----0-2--2-2--------0--------2---------|


  PM------------------------------------------|
  |--3---|    |---3----|   |---3----|   |--3--|
  E  E   E    E   E    E   E    E   E   E E   E
|-----------------------------------------------|
|-----------------------------------------------|
|-----------------------------------------------|
|--------------------------7--------7---9-7---9-|
|-7------7---10---7---10-------10---------------|
|---10------------------------------------------|
|
| PM---------------------------------------------
| E    S   S  S S   S    S S S    S   S E   E
|-----------------------------------------------|
|-----------------------------------------------|
|-----------------------------------------------|
|-----------------------------------------------|
|-----------------------------------------------|
|-3----2---2--2-2---2----2-2-2----2---2-0---2---|


  E E   E   E   E    Q.
|------------------------------------|
|------------------------------------|
|-7---------7---9---[9]b11.5=========|
|---9--------------------------------|
|------------------------------------|
|------------------------------------|
|
|---------------------------------|
| E S S S S S S S S  S        S E E
|------------------------------------|
|------------------------------------|
|------------------------------------|
|------------------------------------|
|------------------------------------|
|-5-2-2-2-2-2-2-2-2--2--------2-0-2--|


                                                    3/4
                                                     \1.5
   +E      Q.                 +Q.             E      H.
|--------------------------------------------------|------------------|
|--------------------------------------------------|------------------|
|-([9])r-[12]b14============([12])r----------------|-0----------------|
|--------------------------------------------------|------------------|
|---------------------------------------------x\---|------------------|
|--------------------------------------------------|------------------|
|
|   PM-------------------------------------------|         PM----|
|   E      S      S S S S S    S    S S S S S S  S   Q     S S S S Q
|--------------------------------------------------|------------------|
|--------------------------------------------------|------------------|
|--------------------------------------------------|------------------|
|--------------------------------------------------|---------------3--|
|--------------------------------------------------|-5-------------1--|
|---3------2------2-2-2-2-2----2----2-2-2-0-2-2--2-|-3-----0-2-2-2----|


 4/4
   ~~~~~~~~~~~~~~~~~~~~~~~~~~~~~~~~~~~~~
   W
|--------------------------------------|
|-15b17================================|
|--------------------------------------|
|--------------------------------------|
|--------------------------------------|
|--------------------------------------|
|
|        PM-----------------------------
|  S     S S S S S S S S S S S S S S S
|--------------------------------------|
|--------------------------------------|
|--------------------------------------|
|--------------------------------------|
|--5-----------------------------------|
|--3-----3-3-3-3-3-3-3-3-3-3-3-3-3-3-3-|


 ~~~~~~~                                     ~~~~~
   +H                  Q         +E     E    W
|-----------------------------------------|--------------------------------------|
|-(15)r---------------17b19.5r==(17)p==14-|--------------------------------------|
|-----------------------------------------|-16b18--------------------------------|
|-----------------------------------------|--------------------------------------|
|-----------------------------------------|--------------------------------------|
|-----------------------------------------|--------------------------------------|
|
|-------------------|                             PM----------------------------|
|                      |------3-------------------------------------------------|
|   S   S S S S S S S  Q      Q      Q       S    S S S S S S S S S S S S S S S
|-----------------------------------------|--------------------------------------|
|-----------------------------------------|--------------------------------------|
|-----------------------------------------|--------------------------------------|
|-----------------------------------------|--------------------------------------|
|----------------------8------8------8----|--4-----------------------------------|
|---3---3-3-3-3-3-3-3--6------6------6----|--2----2-2-2-2-2-2-2-2-2-2-2-2-2-2-2--|


  \1.75
                                         ~~~~~~~~~~~~~~~~~~~~~~~~~~~~~~~~~~~~~
  W                                      W
|-------------------------------------|--------------------------------------|
|-------------------------------------|-15b17================================|
|-0-----------------------------------|--------------------------------------|
|-------------------------------------|--------------------------------------|
|-------------------------------------|--------------------------------------|
|-------------------------------------|--------------------------------------|
|
| PM--------------------------------|          PM-----------------------------
| S     S S S S S S S S S S S S S S S    S     S S S S S S S S S S S S S S S
|-------------------------------------|--------------------------------------|
|-------------------------------------|--------------------------------------|
|-------------------------------------|--------------------------------------|
|-------------------------------------|--------------------------------------|
|-------------------------------------|--5-----------------------------------|
|-2-----2-2-2-2-2-2-2-2-2-2-2-2-2-2-2-|--3-----3-3-3-3-3-3-3-3-3-3-3-3-3-3-3-|


 ~~~~~~~
   +H                  Q         +E     E
|-------------------------------------------|
|-(15)r---------------17b19.5r==(17)p==14---|
|-------------------------------------------|
|-------------------------------------------|
|-------------------------------------------|
|-------------------------------------------|
|
|--------------------------------------|
|                      |------3--------|
|   S   S S S S S S S  Q      Q      Q
|-------------------------------------------|
|-------------------------------------------|
|-------------------------------------------|
|-------------------------------------------|
|----------------------8------8------8------|
|---3---3-3-3-3-3-3-3--6------6------6------|


                 \7__________________
   W             W
|--------------|--------------------|
|--------------|--------------------|
|-16b18--------|--------------------|
|--------------|--------------------|
|--------------|--------------------|
|--------------|-2------------------|
|
|                           PM----|
|  W             H      Q   S S S S
|--------------|--------------------|
|--------------|--------------------|
|--------------|--------------------|
|-11-----------|--------------------|
|--9-----------|--------------------|
|--------------|-x\-----x\--5-3-2-0-|


                                                     |
  ~~~~~~~~~~~~~~~~~~~~~~~~~~~~~~~~~~~~~~~~~~~~~~~~~~~~~~
  W                       +W                        +W
|-----------------------|-------------------------|-------------------------|
|-----------------------|-------------------------|-------------------------|
|-----------------------|-------------------------|-------------------------|
|-----------------------|-------------------------|-------------------------|
|-----------------------|-------------------------|-------------------------|
|-0---------------------|-(0)---------------------|-(0)---------------------|
|
|    PM----|    PM----|        PM----|    PM----|        PM----|    PM----|
| Q  S S S S Q  S S S S    Q   S S S S Q  S S S S    Q   S S S S Q  S S S S
|-----------------------|-------------------------|-------------------------|
|-----------------------|-------------------------|-------------------------|
|-----------------------|-------------------------|-------------------------|
|-----------------------|--2-----------5----------|-------------------------|
|-4----------3----------|--0-----------3----------|--4-----------3----------|
|-2--5-3-2-0-1--5-3-2-0-|------5-3-2-0----5-3-2-0-|--2---5-3-2-0-1--5-3-2-0-|


    /1\    /1\       /1\         /1\    \1____/    \1.5____/
    |--3---|    |-----3-----|
    E   E  E    E    E      E    Q      S    +S   +S      +S
|-------------------------------------------------------------|
|-------------------------------------------------------------|
|-/12s==9s14s==11s==16s====14s==12----/12---(12)-(12)----(12)-|
|-------------------------------------------------------------|
|-------------------------------------------------------------|
|-------------------------------------------------------------|
|
|               PM------------|         PM---------------|
|   Q           S S      S    S  Q      S     S    S       S
|-------------------------------------------------------------|
|-------------------------------------------------------------|
|-------------------------------------------------------------|
|---2----------------------------5----------------------------|
|---0----------------------------3----------------------------|
|---------------5-3------2----0---------5-----3----2-------0--|


    \1____/    \1.5____/    /1\     /1\     /1\    /1\       /1\
                                            |--3---|    |-----3-----|
    S    +S   +S      +S    E       E       E   E  E    E    E      E
|------------------------------------------------------------------------|
|------------------------------------------------------------------------|
|-/12---(12)-(12)----(12)-/12-----/14-----/12s==9s14s==12s==15s====12----|
|------------------------------------------------------------------------|
|------------------------------------------------------------------------|
|------------------------------------------------------------------------|
|
|                           PM----------|               PM------------|
|   Q                       S   S   S   S   Q           S S      S    S
|------------------------------------------------------------------------|
|------------------------------------------------------------------------|
|------------------------------------------------------------------------|
|------------------------------------------------------------------------|
|---4---------------------------------------3----------------------------|
|---2-----------------------5---3---2---0---1-----------5-3------2----0--|


    \1____/    \1.5____/   /1\            /1\     /1\
    S    +S   +S      +S   Q         Q    E       E
|-------------------------------------------------------|
|-/15---(15)-(15)----(15)-15\-----------/17-----/19-----|
|-------------------------------------------------------|
|-------------------------------------------------------|
|-------------------------------------------------------|
|-------------------------------------------------------|
|
|                          PM------|      PM----------|
|   Q                      S   S S S Q    S   S   S   S
|-------------------------------------------------------|
|-------------------------------------------------------|
|-------------------------------------------------------|
|---2--------------------------------5------------------|
|---0--------------------------------3------------------|
|--------------------------5---3-2-0------5---3---2---0-|


    /0.5\         /0.5\    \0.5/  \0.5/  \0.5/    \0.5/
    E     E E     E        E      E      E        E
|-/15-----------/15-------12s====15s====18s======22\------|
|---------------------------------------------------------|
|---------------------------------------------------------|
|---------------------------------------------------------|
|---------------------------------------------------------|
|---------------------------------------------------------|
|
|           PM----------|                PM-------------|
|   Q       S S   S     S  Q             S     S  S     S
|---------------------------------------------------------|
|---------------------------------------------------------|
|---------------------------------------------------------|
|---------------------------------------------------------|
|---4----------------------3------------------------------|
|---2-------5-3---2-----0--1-------------5-----3--2-----0-|


                   |--3--|
  H          Q  E  S  S  S    Q   Q  H
|-----------------10s11s12s|=13-----------||
|--------------------------|--------------||
|--------------------------|--------------||
|--------------------------|--------------||
|--------------------------|--------------||
|--------------------------|--------------||
|
|    PM----|
| Q  S S S S Q  E  E          E E Q  H
|--------------------------|--------------||
|--------------------------|--------------||
|--------------------------|--------------||
|-2----------5-------------|--------------||
|-0----------3--6--5-------|--2-----------||
|----5-3-2-0----4--3-------|--0-----------||


 Interlude
  Gtr I
  W                 +H.           E E   E E Q   H         W
|-----------------|-------------------|-----------------|-----------------|
|-----------------|-------------------|-----------------|-----------------|
|-----------------|-------------------|-----------------|-----------------|
|-2---------------|-(2)-----------6-5-|-2---------------|-----------------|
|-2---------------|-(2)-----------6-5-|-2---------------|-----------------|
|-0---------------|-(0)-----------4-3-|-0---------------|-----------------|
|
| Gtr II
|   PM|     PM|         PM------|         PM|     PM|       PM------|
| E E E E E E E E    E  E E E E E E E   E E E E E E E E   E E E E E E E E
|-----------------|-------------------|-----------------|-----------------|
|-----------------|-------------------|-----------------|-----------------|
|-----------------|-------------------|-----------------|-----------------|
|-----------------|-------------------|-----------------|-----------------|
|-2-----5-4-----4-|--3------------6-5-|-2-----5-4-----4-|-3-----------6-5-|
|-0-0-0-5-4-0-0-4-|--3--0-0-0-0-0-4-3-|-0-0-0-5-4-0-0-4-|-3-0-0-0-0-0-4-3-|


  Gtrs I, II
    PM|     PM|       PM------|         PM|     PM|       PM------|
  E E E E E E E E   E E E E E E E E   E E E E E E E E   E E E E E E E E
|-----------------|-----------------|-----------------|-----------------||
|-----------------|-----------------|-----------------|-----------------||
|-----------------|-----------------|-----------------|-----------------||
|-----------------|-----------------|-----------------|-----------------||
|-2-----5-4-----4-|-3-----------6-5-|-2-----5-4-----4-|-3-----------6-5-||
|-0-0-0-5-4-0-0-4-|-3-0-0-0-0-0-4-3-|-0-0-0-5-4-0-0-4-|-3-0-0-0-0-0-4-3-||


 Bridge
    PM--------|       PM|     PM        PM--------|       PM|     PM
  E E E E E E E E   E E E E E E E E   E E E E E E E E   E E E E E E E E
|-----------------|-----------------|-----------------|-----------------|
|-----------------|-----------------|-----------------|-----------------|
|-----------------|-----------------|-----------------|-----------------|
|-----------------|-----------------|-----------------|-----------------|
|-2-------------5-|-4-----4-3---6-5-|-2-------------5-|-4-----4-3---6-5-|
|-0-0-0-0-0-0-0-3-|-2-0-0-2-1-0-4-3-|-0-0-0-0-0-0-0-3-|-2-0-0-2-1-0-4-3-|


    PM--------|       PM|     PM        PM--------|       PM|     PM
  E E E E E E E E   E E E E E E E E   E E E E E E E E   E E E E E E E E
|-----------------|-----------------|-----------------|-----------------|
|-----------------|-----------------|-----------------|-----------------|
|-----------------|-----------------|-----------------|-----------------|
|-----------------|-----------------|-----------------|-----------------|
|-2-------------5-|-4-----4-3---6-5-|-2-------------5-|-4-----4-3---2-4-|
|-0-0-0-0-0-0-0-3-|-2-0-0-2-1-0-4-3-|-0-0-0-0-0-0-0-3-|-2-0-0-2-1-0-0-0-|


    PM|   PM|   PM--|   PM|   PM        PM|   PM|   PM--|   PM|   PM
  E E E E E E E E   E E E E E E E E   E E E E E E E E   E E E E E E E E
|-----------------|-----------------|-----------------|-----------------|
|-----------------|-----------------|-----------------|-----------------|
|-----------------|-----------------|-----------------|-----------------|
|-------3---------|---5-----4-------|-------3---------|---5-----4-------|
|-5-----------4---|-------------2-4-|-5-----------4---|-------------2-4-|
|-0-0-0---0-0---0-|-0---0-0---0-0-0-|-0-0-0---0-0---0-|-0---0-0---0-0-0-|


    PM|   PM|   PM--|   PM|   PM        PM|   PM|   PM
  E E E E E E E E   E E E E E E E E   E E E E E E E E
|-----------------|-----------------|-----------------|
|-----------------|-----------------|-----------------|
|-----------------|-----------------|-----------------|
|-------3---------|---5-----4-------|-------3---------|
|-5-----------4---|-------------2-4-|-5-----------4---|
|-0-0-0---0-0---0-|-0---0-0---0-0-0-|-0-0-0---0-0---0-|


 Guitar Solo II
  Gtr III
                         ~~~~
  E Q.      H            H           a  +E    +E     +E  +E
|---------------------||----------------------------------------|
|---------------------||----------------------------------------|
|---7b9-----7b9-------||-7b9========(7)r(7)b9r(7)b9==(7)r(7)b9==|
|---------------------||----------------------------------------|
|---------------------||----------------------------------------|
|---------------------||----------------------------------------|
|
| Gtrs I, II
| PM    PM|     PM            PM---------------------|
| E E   E E E   E E E    E    E E E      E     E      E   E
|---------------------||----------------------------------------|
|---------------------||----------------------------------------|
|---------------------||----------------------------------------|
|---5-------4---------||----------------------------------------|
|-----------------6-5-||-2--------------------------------5-----|
|-0-----0-0-----0-4-3-||-0----0-0-0------0-----0------0---3-----|


                      ~~~~~~~~~~~~~~~~~~~~
  +E  +E     +E  +E  +H            +H.              +Q
|--------------------------------|------------------------|
|--------------------------------|------------------------|
|-(7)r(7)b9==(7)r(7)-(7)b9r======|=(7)b9============(7)r==|
|--------------------------------|------------------------|
|--------------------------------|------------------------|
|--------------------------------|------------------------|
|
|      PM----|             PM             PM--------|
|  E   E      E   E   E    E E E    E     E E E E E  E  E
|--------------------------------|------------------------|
|--------------------------------|------------------------|
|--------------------------------|------------------------|
|--------------------------------|------------------------|
|--4--------------4---3------6-5-|--2-------------------5-|
|--2---0------0---2---1----0-4-3-|--0-----0-0-0-0-0--0--3-|


  +Q      +Q      Q    +Q
|-----------------------------|
|-----------------------------|
|-(7)b9r==(7)---/16---(16)\---|
|-----------------------------|
|-----------------------------|
|-----------------------------|
|
|       PM|         PM
|  E    E  E  E   E E   E   E
|-----------------------------|
|-----------------------------|
|-----------------------------|
|-----------------------------|
|--4----------4---3-----6---5-|
|--2----0--0--2---1-0---4---3-|


  T     T     T     T     T     T      T      T
  |----6----| |----6----| |----6----|  |----6-----|
  S S S S S S S S S S S S S S S S S S  S S S  S S S
|---------------------------------------------------|
|---------------------------------------------------|
|-7p4p2-7p4p2-8p5p3-8p5p3-9p6p4-9p6p4-10p7p5-10p7p5-|
|---------------------------------------------------|
|---------------------------------------------------|
|---------------------------------------------------|
|
|       PM----------------------------|
| E     E     E     E     E     E      E      E
|---------------------------------------------------|
|---------------------------------------------------|
|---------------------------------------------------|
|---------------------------------------------------|
|-2-------------------------------------------5-----|
|-0-----0-----0-----0-----0-----0------0------3-----|


   T      T      T      T      T       T       T       T
   |----6-----|  |----6-----|  |-----6------|  |-----6------|
   S S S  S S S  S S S  S S S  S  S S  S  S S  S  S S  S  S S
|-------------------------------------------------------------|
|-------------------------------------------------------------|
|-11p8p6-11p8p6-12p9p7-12p9p7-13p10p8-13p10p8-14p11p9-14p11p9-|
|-------------------------------------------------------------|
|-------------------------------------------------------------|
|-------------------------------------------------------------|
|
|         PM----|                      PM
|  E      E      E      E      E       E       E       E
|-------------------------------------------------------------|
|-------------------------------------------------------------|
|-------------------------------------------------------------|
|-------------------------------------------------------------|
|--4--------------------4------3---------------6-------5------|
|--2------0------0------2------1-------0-------4-------3------|


   T        T        T        T        T        T        T        T
   |------6-------|  |------6-------|  |------6-------|  |------6-------|
   S  S  S  S  S  S  S  S  S  S  S  S  S  S  S  S  S  S  S  S  S  S  S  S
|-------------------------------------------------------------------------|
|-------------------------------------------------------------------------|
|-15p12p10-15p12p10-16p13p11-16p13p11-17p14p12-17p14p12-18p15p13-18p15p13-|
|-------------------------------------------------------------------------|
|-------------------------------------------------------------------------|
|-------------------------------------------------------------------------|
|
|           PM------------------------------------------|
|  E        E        E        E        E        E        E        E
|-------------------------------------------------------------------------|
|-------------------------------------------------------------------------|
|-------------------------------------------------------------------------|
|-------------------------------------------------------------------------|
|--2--------------------------------------------------------------5-------|
|--0--------0--------0--------0--------0--------0--------0--------3-------|


   T        T        T        T        T        T        T        T
   |------6-------|  |------6-------|  |------6-------|  |------6-------|
   S  S  S  S  S  S  S  S  S  S  S  S  S  S  S  S  S  S  S  S  S  S  S  S
|-------------------------------------------------------------------------|
|-------------------------------------------------------------------------|
|-19p16p14-19p16p14-20p17p15-20p17p15-21p18p16-21p18p16-22p19p17-22p19p17-|
|-------------------------------------------------------------------------|
|-------------------------------------------------------------------------|
|-------------------------------------------------------------------------|
|
|           PM------|                           PM
|  E        E        E        E        E        E        E        E
|-------------------------------------------------------------------------|
|-------------------------------------------------------------------------|
|-------------------------------------------------------------------------|
|-------------------------------------------------------------------------|
|--4--------------------------4--------3-----------------6--------5-------|
|--2--------0--------0--------2--------1--------0--------4--------3-------|


               ~~~~~
   H           H             H           Q        +Q
|-------------------------|-------------------------------|
|-22----------22----------|-22----------22-------(22)\----|
|-21b23-------21b23-------|-21b23-------21b23====(21)r\---|
|-------------------------|-------------------------------|
|-------------------------|-------------------------------|
|-------------------------|-------------------------------|
|
|       PM|         PM|           PM-----------|
|  E    E E E  E    E E E    E    E E E  E     E   E    E
|-------------------------|-------------------------------|
|-------------------------|-------------------------------|
|-------------------------|-------------------------------|
|-------------------------|-------------------------------|
|--2--------5--4--------4-|--3---------------------6----5-|
|--0----0-0-5--4----0-0-4-|--3----0-0-0--0-----0---4----3-|


  T                     T                         T
  Q.     T  S. E..    T Q      E  T  S. E..    T  Q.     T S.
|---------------------------|---------------------------------|
|---------------------------|---------------------------------|
|---------------------------|--------------------10s====19p2/-|
|-----------------------9s==|=14s17p12s13s====19--------------|
|-7s====15p10s11s====17-----|---------------------------------|
|---------------------------|---------------------------------|
|
|   PM|            PM---|         PM----------------|
| E E E  E     E   E    E E    E  E     E   E     E E E  E
|---------------------------|---------------------------------|
|---------------------------|---------------------------------|
|---------------------------|---------------------------------|
|---------------------------|---------------------------------|
|-2------5-----4----------4-|--3----------------------6--5----|
|-0-0-0--5-----4---0----0-4-|--3--0-----0---0-----0-0-4--3----|


   H           H          H           Q.      S  S
|----------------------|---------------------------|
|-15b16-------15-------|-17b18-------17------------|
|-15b16-------15-------|-17b18-------17------17-16-|
|----------------------|---------------------------|
|----------------------|---------------------------|
|----------------------|---------------------------|
|
|       PM|      PM|           PM--------|
|  E    E E E  E E E E    E    E E E  E  E E  E
|----------------------|---------------------------|
|----------------------|---------------------------|
|----------------------|---------------------------|
|----------------------|---------------------------|
|--2--------5--4-----4-|--3----------------6--5----|
|--0----0-0-5--4-0-0-4-|--3----0-0-0--0--0-4--3----|


   ~~~~                   PM-----|
                          |---3---|  |---3---|  |---3---|  |---3---|
   H..              E     E  E    E  E  E    E  E  E    E  E  E    E
|----------------------|----------------------------------13-16---17-||
|----------------------|-----------------------13-15---17------------||
|-16---------------16\-|------------13-14---16-----------------------||
|----------------------|-12-14---15----------------------------------||
|----------------------|---------------------------------------------||
|----------------------|---------------------------------------------||
|
|      PM|     PM|             PM--------------------|
|  E   E E E E E E  E     E    E     E    E     E    E     E    E
|----------------------|---------------------------------------------||
|----------------------|---------------------------------------------||
|----------------------|---------------------------------------------||
|----------------------|---------------------------------------------||
|--2-------5-4------4--|--3--------------------------------2----4----||
|--0---0-0-5-4-0-0--4--|--3----0-----0----0-----0----0-----0----0----||


 Interlude
               ~~~~~~~~~~~~~~~~~~~~~~~~~~~~~~~~~~~
   H           H              +W
|-17b18-------17b19========|=(17)r---------------|
|--------------------------|---------------------|
|--------------------------|---------------------|
|--------------------------|---------------------|
|--------------------------|---------------------|
|--------------------------|---------------------|
|
|       PM|    PM----|   PM--|       PM|   PM
|  E    E E E  E     E E E     E   E E E E E E E
|--------------------------|---------------------|
|--------------------------|---------------------|
|--------------------------|---------------------|
|-----------3--------------|-------5-----4-------|
|--5-------------------4---|-----------------2-4-|
|--0----0-0----0-----0---0-|---0-----0-0---0-0-0-|


 ~~~~~~~~~~~~~~~~~~~~~~~~~~~~~
   W                      +W
|-17b19================|=(17)---------------|
|----------------------|--------------------|
|----------------------|--------------------|
|----------------------|--------------------|
|----------------------|--------------------|
|----------------------|--------------------|
|
|        PM|   PM|   PM--|      PM|   PM
|  E     E E E E E E E     E  E E E E E E E
|----------------------|--------------------|
|----------------------|--------------------|
|----------------------|--------------------|
|------------3---------|------5-----4-------|
|--5---------------4---|----------------2-4-|
|--0-----0-0---0-0---0-|---0----0-0---0-0-0-|


    ~~~~~~~~~~~~~~~~~~~~~~~~~~~~~~~~~~~~~~~
   +W                   +W
|-(17)---------------|-(17)---------------|
|--------------------|--------------------|
|--------------------|--------------------|
|--------------------|--------------------|
|--------------------|--------------------|
|--------------------|--------------------|
|
|      PM|   PM|   PM--|      PM|   PM
|   E  E E E E E E E     E  E E E E E E E
|--------------------|--------------------|
|--------------------|--------------------|
|--------------------|--------------------|
|----------3---------|------5-----4-------|
|---5------------4---|----------------2-4-|
|---0--0-0---0-0---0-|---0----0-0---0-0-0-|


 ~~~~~~~~~~~~~~~~~~~~~~~~~~~~
   +W                   +H          Q        +Q
|-(17)---------------|-(17)r-------22b23====(22)r\---||
|--------------------|-------------------------------||
|--------------------|-------------------------------||
|--------------------|-------------------------------||
|--------------------|-------------------------------||
|--------------------|-------------------------------||
|
|      PM|   PM|   PM--|       PM|        PM-------|
|   E  E E E E E E E     E   E E E  E     E   E    E
|--------------------|-------------------------------||
|--------------------|-------------------------------||
|--------------------|-------------------------------||
|----------3---------|-------5------4----------------||
|---5------------4---|-------------------------------||
|---0--0-0---0-0---0-|---0-----0-0--------0---0----2-||


 Guitar Solo III
   H                  +H
|-24b25==============(24)r-----------|
|------------------------------------|
|------------------------------------|
|------------------------------------|
|------------------------------------|
|------------------------------------|
|
|  PM---------------------------------
|  E     S S S S S S   S   S S S E E
|------------------------------------|
|------------------------------------|
|------------------------------------|
|------------------------------------|
|------------------------------------|
|--3-----2-2-2-2-2-2---2---2-2-2-0-2-|


   |------------------3------------------|                            |-3--|
   Q        a       +Q          a       +Q        a       +Q          Q    E
|-24b26r==(24)b26==(24)r======(24)b26==(24)r====(24)b26==(24)r\-----------17--|
|-----------------------------------------------------------------------------|
|-----------------------------------------------------------------------------|
|-----------------------------------------------------------------------------|
|-----------------------------------------------------------------------------|
|-----------------------------------------------------------------------------|
|
|-----------------------------------------------------------------------|
|  E    S               S S S               S S            S    S S S E E
|-----------------------------------------------------------------------------|
|-----------------------------------------------------------------------------|
|-----------------------------------------------------------------------------|
|-----------------------------------------------------------------------------|
|-----------------------------------------------------------------------------|
|--5----2---------------2-2-2---------------2-2------------2----2-2-2-0-2-----|


   |---3---|    |----3----|    |----3----|    |----3----|
   E  E    E    E    E    E    E    E    E    E    E    E
|-19-21---19---17------------------17---19---21---19---17---|
|-------------------20---19---17----------------------------|
|-----------------------------------------------------------|
|-----------------------------------------------------------|
|-----------------------------------------------------------|
|-----------------------------------------------------------|
|
|  PM-----------------------------------------------------|
|  E    S    S  S S    S    S  S S    S    S  S S    S    S
|-----------------------------------------------------------|
|-----------------------------------------------------------|
|-----------------------------------------------------------|
|-----------------------------------------------------------|
|-----------------------------------------------------------|
|--3----2----2--2-2----2----2--2-2----2----2--0-2----2----2-|


   |--3--|  |----3----|    |--3--|
   E  E  E  E    E    E    E  E  E  E  E
|----------17---19---21---19-17----------|
|-20-19-17----------------------20-19-17-|
|----------------------------------------|
|----------------------------------------|
|----------------------------------------|
|----------------------------------------|
|
|           PM----------|           PM|
|  Q        S S    S    S  Q        E  E
|----------------------------------------|
|----------------------------------------|
|----------------------------------------|
|--------------------------3-------------|
|--5-----------------------1-------------|
|--3--------0-2----2----2-----------0--2-|


  \7
                                ~~~                    PM
  W                             H.                     Q
|----------------------------|-----------------------------|
|----------------------------|-<5>-------------------------|
|-0--------------------------|-----------------------------|
|----------------------------|-----------------------------|
|----------------------------|-----------------------------|
|----------------------------|-------------------------x---|
|
| PM-----------------------------------------------------|
| E  S S S S S S S S S S E E    E  S S S S S S S S S S E E
|----------------------------|-----------------------------|
|----------------------------|-----------------------------|
|----------------------------|-----------------------------|
|----------------------------|-----------------------------|
|----------------------------|-----------------------------|
|-3--2-2-2-2-2-2-2-2-2-2-0-2-|--5--2-2-2-2-2-2-2-2-2-2-0-2-|


                                                                ~~~~~~~~
  |--3--|   |---3---|   |---3---|   |---3---|     |-3-| |---3---|
  E E   E   E   E   E   E   E   E   E   E   E     E E E E   E   E   +H
|---5---7---9---7---5---------------------------|-----------------------------|
|-----------------------8---7---5---------------|-----------------------------|
|-----------------------------------7---5---4---|-7-5-4-----------------------|
|-----------------------------------------------|-------7---5---4---(4)-------|
|-----------------------------------------------|-----------------------------|
|-----------------------------------------------|-----------------------------|
|
| PM------------------------------------------|         PM--------|      PM|
| E   S   S S S   S   S S S   S   S S S   S   S   Q     S S   S   S  Q   E E
|-----------------------------------------------|-----------------------------|
|-----------------------------------------------|-----------------------------|
|-----------------------------------------------|-----------------------------|
|-----------------------------------------------|--------------------3--------|
|-----------------------------------------------|-5------------------1--------|
|-3---2---2-2-2---2---2-2-2---2---2-0-2---2---2-|-3-----0-2---2---2------0-2--|


  \7                                                         \1/
                        ~~~~~~~~~~~~~~~~~
  H              +E     Q.          +H.                      Q
|--------------------------------|---------------------------------|
|--------------------------------|---------------------------------|
|----------------------[5]-------|-([5])---------------------0-----|
|--------------------------------|---------------------------------|
|--------------------------------|---------------------------------|
|-0--------------(0)-------------|---------------------------------|
|
| PM-------------------------------------------------------------|
| E  S S S S S S  S  S  S  S E E     E   S S S S S S S S S S E   E
|--------------------------------|---------------------------------|
|--------------------------------|---------------------------------|
|--------------------------------|---------------------------------|
|--------------------------------|---------------------------------|
|--------------------------------|---------------------------------|
|-3--2-2-2-2-2-2--2--2--2--2-0-2-|---5---2-2-2-2-2-2-2-2-2-2-0---2-|


  \1__/   \1____/   \1____/    \1_____/
  E   E   E     E   E     E    E      E
|-----------------------------------------|
|-----------------------------------------|
|-5s==4s==7s====6s==9s====8s==11s====10s==|
|-----------------------------------------|
|-----------------------------------------|
|-----------------------------------------|
|
| PM------------------------------------|
| E   S S S   S S S S   S S S  S   S  S S
|-----------------------------------------|
|-----------------------------------------|
|-----------------------------------------|
|-----------------------------------------|
|-----------------------------------------|
|-3---2-2-2---2-2-2-2---2-2-2--0---2--2-2-|


   \1___/  \1_____/    \1___/  \1___/
   E    E  E      E    E    E  E    E
|--------------------------------------|
|--------------------------------------|
|-13s==12s15s====14s==16s==15s17s==16\-|
|--------------------------------------|
|--------------------------------------|
|--------------------------------------|
|
|          PM-------|          PM--|
|  Q       S   S  S S  Q       E    E
|--------------------------------------|
|--------------------------------------|
|--------------------------------------|
|----------------------3---------------|
|--5-------------------1---------------|
|--3-------0---2--2-2----------0----2--|


   T     T     T     T     T     T     T     T
   S  S  S  S  S  S  S  S  S  S  S  S  S  S  S  S
|-------------------------------------------------|
|-------------------------------------------------|
|-------------------------------------------------|
|-------------------------------------------------|
|-------------------------19p13-19p13-19p13-19p13-|
|-18p12-18p12-18p12-18p12-------------------------|
|
|  PM----------------------------------------------
|  E     S  S  S  S  S  S  S  S  S  S  E     E
|-------------------------------------------------|
|-------------------------------------------------|
|-------------------------------------------------|
|-------------------------------------------------|
|-------------------------------------------------|
|--3-----2--2--2--2--2--2--2--2--2--2--0-----2----|


   T     T     T     T     T     T     T     T
   S  S  S  S  S  S  S  S  S  S  S  S  S  S  S  S
|--------------------------------------------------|
|--------------------------------------------------|
|-------------------------21p15-21p15-21p15-21p15--|
|-20p14-20p14-20p14-20p14--------------------------|
|--------------------------------------------------|
|--------------------------------------------------|
|
|-------------------------------------------|
|  E     S  S  S  S  S  S  S  S  S  S  E     E
|--------------------------------------------------|
|--------------------------------------------------|
|--------------------------------------------------|
|--------------------------------------------------|
|--------------------------------------------------|
|--5-----2--2--2--2--2--2--2--2--2--2--0-----2-----|


   T     T     T     T     T          T          T        T
                           |--------6---------|  |------6-------|
   S  S  S  S  S  S  S  S  S  S    S  S  S    S  S  S  S  S  S  S
|-------------------------23p17p==14-23p17p==14-22p16p13-22p13h16-|
|-22p16-22p16-22p16-22p16-----------------------------------------|
|-----------------------------------------------------------------|
|-----------------------------------------------------------------|
|-----------------------------------------------------------------|
|-----------------------------------------------------------------|
|
|  PM----------------------------------------------------|
|  E     S  S  S  S  S  S  S    S     S    S     E        E
|-----------------------------------------------------------------|
|-----------------------------------------------------------------|
|-----------------------------------------------------------------|
|-----------------------------------------------------------------|
|-----------------------------------------------------------------|
|--3-----2--2--2--2--2--2--2----2-----2----2-----0--------2-------|


   T        T        T          T          T        T        T
   |------6-------|  |--------6---------|  |------6-------|  |-3--|
   S  S  S  S  S  S  S  S    S  S  S    S  S  S  S  S  S  S  S  S S  E
|-21p15p12-21p15p12-20p14p==11-20p14p==11-19p13p10-19p13p10-18p12p9h12s|
|----------------------------------------------------------------------|
|----------------------------------------------------------------------|
|----------------------------------------------------------------------|
|----------------------------------------------------------------------|
|----------------------------------------------------------------------|
|
|                    PM--------------|
|  Q                 S    S     S    S     Q                 E       E
|----------------------------------------------------------------------|
|----------------------------------------------------------------------|
|----------------------------------------------------------------------|
|------------------------------------------3---------------------------|
|--5---------------------------------------1-----------------2-------3-|
|--3-----------------0----2-----2----2-----------------------0-------1-|


   E E Q  H
|-24-----------*|
|--------------*|
|--------------*|
|--------------*|
|--------------*|
|--------------*|
|
|  E E Q  H
|--------------*|
|--------------*|
|--------------*|
|--------------*|
|--4-----------*|
|--2-----------*|

10.                                               SEASONS IN THE ABYSS

---0----------------|---0----------------|
---0----------------|---0----------------|
--------------------|--------------------|
-2-------2------3-3-|-2-------2------3-3-|
-2------2---1^--3-3-|-2------2---1^--3-3-|
-0--------------1-1-|-0--------------1-1-|

---------0----------------|----------0----------------|
---------0----------------|----------0----------------|
--------------------------|---------------------------|
---------------2------3-3-|----------------2------3-3-|
----3-2~------2---1^--3-3-|-----3-2~------2---1^--3-3-|
0-1-------------------1-1-|-0-1-------------------1-1-|


---------------12---------|---------------12--------|
------13-12--12-----------|------13-12--12----------|
---14-------------15^-----|---14-------------15^----|
-15-------------------3-3-|-15-------------------33-|
----------------------3-3-|----------------------33-|
----------------------1-1-|----------------------11-|

----0--------0--------0--------0----0---|
---0-0------0-0------0-0------0----0----|
--3---3-3--3---3-3--3---3-3--3----3-----|
-2-----2--2-----2--3-----3--------------|
----------------------------3----2------|
----------------------------------------|

----------------------|
----------------------|
-----------------5--4-|
-2--------3------5--4-|
-2--------3------3--2-|
-0--------1------3--2-|

-------------------------------------------------------|
-------------------------------------------------------|
---------------------------------------------------5-4-|
-4----9-9-9-9-9-9-9-9-10-10-10-10-10-10-10-10--5---5-4-|
-2----7-7-7-7-7-7-7-7-8--8--8--8--8--8--8--8---3---3-2-|
---------------------------------------------------3-2-|

---------------------------------|
---------------------------------|
----palm mute all except--!---!--|
--------------------------2---1--|
--------------------------2---1--|
-0-2-3--0-2-3-5--0-2-3-0---30--2-|

--------------------------------|
--------------------------------|
----palm mute all except----!-!-|
----------------------------5-4-|
----------------------------5-4-|
-0-2-3--0-2-3-5--0-2-3-2-0--3-2-|

----------------------------------------------------------|
----------------------------------------------------------|
-palm mute-!!!------------!!!------------!!!------------1-|
-2-222-1-2-222--2-222---2-222--2-222-1-2-222--2-22222---1-|
-2-222-1-2-222--2-222-2-2-222--2-222-1-2-222--2-22222-3---|
----------------------1-------------------------------3---|

----------------------------------------------------------|
----------------------------------------------------------|
-palm mute-!!!------------!!!------------!!!--------------|
-2-222-1-2-222--2-222---2-222--2-222-1-2-222--2-22222-5-4-|
-2-222-1-2-222--2-222-2-2-222--2-222-1-2-222--2-22222-5-4-|
----------------------1-------------------------------3-2-|

-------------------|
-------------------|
---------5---------|
-2---3---5-----5-4-|
-2---3---3-----5-4-|
-0---1---3-----3-2-|

----------------------------------------------------------|
----------------------------------------------------------|
-palm mute-!!!------------!!!------------!!!------------1-|
-2-222-1-2-222--2-222---2-222--2-222-1-2-222--2-22222---1-|
-2-222-1-2-222--2-222-2-2-222--2-222-1-2-222--2-22222-3---|
----------------------1-------------------------------3---|

----------------------------------------------------------|
----------------------------------------------------------|
-palm mute-!!!------------!!!------------!!!--------------|
-2-222-1-2-222--2-222---2-222--2-222-1-2-222--2-22222-5-4-|
-2-222-1-2-222--2-222-2-2-222--2-222-1-2-222--2-22222-5-4-|
----------------------1-------------------------------3-2-|

-------------------|
-------------------|
---------5---------|
-2---3---5-----5-4-|
-2---3---3-----5-4-|
-0---1---3-----3-2-|

---------------------------------|
---------------------------------|
----palm mute all except--!---!--|
--------------------------2---1--|
--------------------------2---1--|
-0-2-3--0-2-3-5--0-2-3-0---30--2-|

--------------------------------|
--------------------------------|
----palm mute all except----!-!-|
----------------------------5-4-|
----------------------------5-4-|
-0-2-3--0-2-3-5--0-2-3-2-0--3-2-|

That's all folks

            
            
Suggest correction
Creating personal tab
Creating personal tab
You can edit any tab online and save it as your Personal.

You can edit, replace or remove any tab part or add personal notes – all changes will be seen only by you.

Personal tabs can be accessed anytime from any device, even offline.
Learn more »
comments
print report bad tab
guest
You may want to rate the tab now too:
select rating
Wanna post a correction for this tab? Suggest correction