Oops, an error
Loading. Please wait.

South Of Heaven Bass Tab

version 1
version 1

Whole song

24,528 views 12 this week
no commentswrite comment
1 2 3 4 5
x 11
add to favorites
launch autoscroll
font size
0
reset
guitar tuner
Autoscroll
slow
fast
+/-
esc
set tempo
stop
Help us to improve Ultimate-Guitar.com Take our survey!
×
**********************************************************************
This tab file was downloaded from THE ABYSS - the complete Slayer site                      http://www.slaytanic.com/
**********************************************************************

                       South of Heaven - Slayer
                       ========================

Tune down 1/2 step (Eb,Ab,Db,Gb)

 54 bpm
|-----------------|-----------------|-----------------|-----------------|
|-----------------|-----------------|-----------------|-----------------|
|-----------------|-----------------|-----------------|-----------------|
|-----------------|-----------------|-----------------|-----------------|

|-----------------|-----------------|-----------------|-----------------||
|-----------------|-----------------|-----------------|-----------------||
|-----------------|-----------------|-----------------|-----------------||
|-----------------|-----------------|-----------------|-----------------||

|-----------------|-----------------|-----------------|-----------------||
|-----------------|-----------------|-----------------|-----------------||
|-----------------|-----------------|-----------------|-----------------||
|-0---------------|-0---------------|-0---------------|-0---------------||

 verse 1
|-----------------|-----------------|-----------------|------------------|
|-----------------|-----------------|-----------------|------------------|
|-----------------|-----------------|-----------------|------------------|
|-0000000000000000|-0000000000000000|-0000000000000000|-0000000000000015\|

|-----------------|-----------------|-----------------|-----------------|
|-----------------|-----------------|-----------------|-----------------|
|-----------------|-----------------|-----------------|-----------------|
|-0--------------0|-0--------------0|-0--------------0|-0---------------|

|-----------------|-----------------|-----------------|-----------------||
|-----------------|-----------------|-----------------|-----------------||
|-----------------|-----------------|-----------------|-----------------||
|-0---000000000011|-0000000000000011|-0000000000000011|-0000000000000011||

 verse 2
 138 bpm
|-----------------|-----------------|-----------------|-----------------|
|-----------------|-----------------|-----------------|-----------------|
|-----------------|-----------------|-----------------|-----------------|
|-000-0-3-0-0-1-0-|-000-0-3-000-1---|-000-0-3-0-0-1-0-|-000-0-3-000-1---|

|-----------------|-----------------|-----------------|-----------------||
|-----------------|-----------------|-----------------|-----------------||
|-----------------|-----------------|-----------------|-----------------||
|-000-0-3-0-0-1-0-|-000-0-3-000-1---|-000-0-3-0-0-1-0-|-000-0-3-000-1---||

 pre-chorus
|-----------------|-----------------|-----------------|-----------------||
|-----------------|-----------------|-----------------|-----------------||
|-----------------|-----------------|-----------------|---------1-------||
|-222-222-222-6\0-|-222-222-222-3---|-222-222-222-6\0-|-222-2220--3-2-1-||

 63 bpm
|-----------------|-----------------|-----------------|-----------------|
|-----------------|-----------------|-----------------|-----------------|
|-----------------|-----------------|-----------------|-----------------|
|-0-------------00|-0-------------00|-0-------------00|-0---------------|

|-----------------|-----------------||
|-----------------|-----------------||
|-----------------|-----------------||
|-0-------------11|-0-------------11||

 verse 3
 138 bpm
|-----------------|-----------------|-----------------|-----------------|
|-----------------|-----------------|-----------------|-----------------|
|-----------------|-----------------|-----------------|-----------------|
|-000-0-3-0-0-1-0-|-000-0-3-000-1---|-000-0-3-0-0-1-0-|-000-0-3-000-1---|

|-----------------|-----------------|-----------------|-----------------||
|-----------------|-----------------|-----------------|-----------------||
|-----------------|-----------------|-----------------|-----------------||
|-000-0-3-0-0-1-0-|-000-0-3-000-1---|-000-0-3-0-0-1-0-|-000-0-3-000-1---||

 pre-chorus
|-----------------|-----------------|-----------------|-----------------||
|-----------------|-----------------|-----------------|-----------------||
|-----------------|-----------------|-----------------|---------1-------||
|-222-222-222-6\0-|-222-222-222-3---|-222-222-222-6\0-|-222-2220--3-2-1-||

 chorus
|-----------------|-----------------|-----------------|-----------------|
|-----------------|-----------------|-----------------|-----------------|
|-----------------|-----------------|-----------------|-----------------|
|-0-0-4---3-0-0-3-|-2-0-0-0-0-0-1---|-0-0-4---3-0-0-3-|-2-0-0-0-0-0-1---|

|-----------------|-----------------|-----------------|-----------------||
|-----------------|-----------------|-----------------|-----------------||
|-----------------|-----------------|-----------------|-----------------||
|-0-0-4---3-0-0-3-|-2-0-0-0-0-0-1---|-0-0-4---3-0-0-3-|-2-0-0-0-0-0-1---||

 guitar solo I
|-----------------|-----------------|-----------------|-----------------|
|-----------------|-----------------|-----------------|-----------------|
|-----------------|-----------------|-----------------|-----------------|
|-0000000000001---|-00004---00003---|-0000000000001---|-00004---00003---|

|-----------------|-----------------|-----------------|-----------------|
|-----------------|-----------------|-----------------|-----------------|
|-----------------|-----------------|-----------------|-----------------|
|-0000000000001---|-00004---00003---|-0000000000001---|-00004---00003---|

|-----------------|-----------------|-----------------|-----------------||
|-----------------|-----------------|-----------------|-----------------||
|-----------------|-----------------|-----------------|-----------------||
|-0000000000001---|-00004---00003---|-0000000000001---|-00004---00003---||

 verse 4
|-----------------|-----------------|-----------------|-----------------|
|-----------------|-----------------|-----------------|-----------------|
|-----------------|-----------------|-----------------|-----------------|
|-000-0-3-0-0-1-0-|-000-0-3-000-1---|-000-0-3-0-0-1-0-|-000-0-3-000-1---|

|-----------------|-----------------|-----------------|-----------------||
|-----------------|-----------------|-----------------|-----------------||
|-----------------|-----------------|-----------------|-----------------||
|-000-0-3-0-0-1-0-|-000-0-3-000-1---|-000-0-3-0-0-1-0-|-000-0-3-000-1---||

 pre-chorus
|-----------------|-----------------|-----------------|-----------------||
|-----------------|-----------------|-----------------|-----------------||
|-----------------|-----------------|-----------------|---------1-------||
|-222-222-222-6\0-|-222-222-222-3---|-222-222-222-6\0-|-222-2220--3-2-1-||

 chorus
|-----------------|-----------------|-----------------|-----------------|
|-----------------|-----------------|-----------------|-----------------|
|-----------------|-----------------|-----------------|-----------------|
|-0-0-4---3-0-0-3-|-2-0-0-0-0-0-1---|-0-0-4---3-0-0-3-|-2-0-0-0-0-0-1---|

|-----------------|-----------------|-----------------|-----------------||
|-----------------|-----------------|-----------------|-----------------||
|-----------------|-----------------|-----------------|-----------------||
|-0-0-4---3-0-0-3-|-2-0-0-0-0-0-1---|-0-0-4---3-0-0-3-|-2-0-0-0-0-0-1---||

 outro
|-----------------|-----------------|-----------------|-----------------|
|-----------------|-----------------|-----------------|-----------------|
|-----------------|-----------------|-----------------|-----------------|
|-00004---3-00003-|-2-00000000000000|-00004---3-00003-|-2-00000000000000|

|-----------------|-----------------|-----------------|-----------------|
|-----------------|-----------------|-----------------|-----------------|
|-----------------|-----------------|-----------------|-----------------|
|-00004---3-00003-|-2-00000000000000|-00004---3-00003-|-2-00000000000000|

|-----------------|-----------------|-----------------|-----------------|
|-----------------|-----------------|-----------------|-----------------|
|-----------------|-----------------|-----------------|-----------------|
|-00004---3-00003-|-2-00000000000000|-00004---3-00003-|-2-2-2-2-2-2-2-2-|

|-----------------|-----------------||
|-----------------|-----------------||
|-----------------|-----------------||
|-2-2-2-2-2-2-2-2-|-0---------------||

Suggest correction
comments
print report bad tab
guest
You may want to rate the tab now too:
select rating
Wanna post a correction for this tab? Suggest correction