Oops, an error
Loading. Please wait.

Spill The Blood Tab

version 1
version 1

Intro

Whole song

8,499 views 12 this week
4 commentsread comments
1 2 3 4 5
worth learning
x 23
add to favorites
launch autoscroll
font size
0
reset
how to read this tab
guitar tuner
Tab Pro tools
  • play this tab
  • loop segment
  • change instrument
  • show fretboard
  • metronome
Autoscroll
slow
fast
+/-
esc
set tempo
stop
Contributor
E |-6---------------6---------------|-5---------------5----------------|
B |---------4---------------4-------|---------4---------------4--------|
G |-----3-------3-------3-------3---|-----3-------3-------3--------3---|
D |---------------------------------|----------------------------------|
A |---------------------------------|----------------------------------|
E |---------------------------------|----------------------------------|

E |-1---------------1---------------|-2---------------0----------------|
B |---------4---------------4-------|---------4---------------4--------|
G |-----3-------3-------3-------3---|-----3-------3-------3-------3----|
D |---------------------------------|----------------------------------|
A |---------------------------------|----------------------------------|
E |---------------------------------|----------------------------------|

the other things submitted look quite okay, but the intro was awfully wrong.
this should be the right one. if you wish to send comment; coenvdwel@planet.nl
comments
print report bad tab
4 comments total. Showing first comments.
+2 reply
shadowofbodom wrote on March 14 2005, 12:00 am

sorry, but this is wrong

the intro is as follows
-----0--------0-------0-------0-------0-------0------0------0----
---0---0----0---0---0--0----0--0----0--0----0--0---0--0---0--0-- Repeat
-4--------4-------3-------3--------------------------------------
----------------------------------4-------4-------5------3-------
-----------------------------------------------------------------
-----------------------------------------------------------------

0 reply
shadowofbodom wrote on March 14 2005, 12:00 am

and i just saw ver 2, which has the correct intro

0 reply
Coenvdwel wrote on May 14 2005, 12:00 am

if you'd want to change your tuning, that one is correct.. i have locks so i prefer not to. it's not wrong, it's just different..

I want to post or [tab]
guest
You may want to rate the tab now too:
select rating
Please do not post tabs as comments. Select "correction" instead!