Oops, an error
Loading. Please wait.

Threshold Tab

version 2
version 2

Whole song

Interactive

6,252 views 27 this week
no commentswrite comment
1 2 3 4 5
x 4
add to favorites
launch autoscroll
font size
0
reset
how to read this tab
guitar tuner
Autoscroll
slow
fast
+/-
esc
set tempo
stop
Help us to improve Ultimate-Guitar.com Take our survey!
×
Author
Tuning
D A D G B E
-------------------------------------------------------------------------------
                             THRESHOLD - Slayer
-------------------------------------------------------------------------------
Tabbed by: Me, of course
Email: ilovepotnoodles@hotmail.com

Tuning: (low to high) Db-Ab-Db-Gb-Bb-Eb

Intro:
Eb|------------------------------------------------------------------------|
Bb|------------------------------------------------------------------------|
Gb|------------------------------------------------------------------------|
Db|------------------------------------------------------------------------|
Ab|------------------------------------------------------------------------|
Db|-2-1-0-1-0--2-1-0--2-1-0-1-0--2-1-0--2-1-0-1-0--2-1-0--2-1-0-1-0--2-1-0-|
P.M........................................................................|             
                                                             |
Eb|------------------------------------------------------------------------|
Bb|------------------------------------------------------------------------|
Gb|------------------------------------------------------------------------|
Db|------------------------------------------------------------------------|
Ab|------------------------------------------------------------------------|
Db|-------------------------------------2-1-0-1-0--2-1-0--2-1-0-1-0--2-1-0-|
P.M                                     ..................................
(Both Guitars)                                                            X3
Eb|------------------------------------------------------------------------|
Bb|------------------------------------------------------------------------|
Gb|------------------------------------------------------------------------|
Db|------------------------------------------------------------------------|
Ab|-2-1-0-1-0--2-1-0-1-2-0-2-0-1--2-1-0-1-0--2-1-0-1-2-0-2-0-1-------------|
Db|-2-1-0-1-0--2-1-0-1-2-0-2-0-1--2-1-0-1-0--2-1-0-1-2-0-2-0-1-------------|

Verse:
Eb|------------------------------------------------------------------------|
Bb|------------------------------------------------------------------------|
Gb|------------------------------------------------------------------------|
Db|------------------------------------------------------------------------|
Ab|------------------------------------------------------------------------|
Db|-2-1-0-1-0--2-1-0--2-1-0-1-0-1-0--2-1-0---------------------------------|
P.M........................................
                                                                          X2
Eb|------------------------------------------------------------------------|
Bb|------------------------------------------------------------------------|
Gb|------------------------------------------------------------------------|
Db|------------------------------------------------------------------------|
Ab|------------------------------------------------------------------------|
Db|-1-0--0-1-0--0-1-0--0--0-1--1-0--0-1-0--0-1-0--0--0-1-------------------|
P.M......................................................                  |
                                                                           |
Eb|------------------------------------------------------------------------|
Bb|---------------------------------------------4v////\\\\/////\\\---------|
Gb|------------------------------------------------------------------------|
Db|------------------------------------------------------------------------|
Ab|------------------------------------------------------------------------|
Db|------------------------------------------------------------------------|
Suggest correction
comments
print report bad tab
guest
You may want to rate the tab now too:
select rating
Wanna post a correction for this tab? Suggest correction