Oops, an error
Loading. Please wait.

World Painted Blood tab

version 2
version 2
by Slayer
3,443 views 1 this week
no commentswrite comment
1 2 3 4 5
1 last vote to show rating
add to favorites
×
Save as Personal and add changes to this tab that will be seen only by you. Learn more ›
×
You can save this tab as Personal to edit and correct it or add notes. All changes will be seen only by you. Learn more »
launch autoscroll
font size
0
reset
how to read this tab
guitar tuner
backing track
0:00
0:00
edit
Autoscroll
slow
fast
+/-
esc
set tempo
stop
This is my tab for the song World Painted Blood by Slayer, the title track of the new 
Be sure to check out my other tabs from this album :)
I list all of the riffs needed for the song, and you just have to put them where they 
Good Luck!

Intro
Eb|-------------------|
Bb|-------------------|
Gb|-------------------|
Db|-------------------|
Ab|----7-6-2-3-0------|
Eb|-------------------|

Riff 1
|--------------------------------------------------------------------|
|--------------------------------------------------------------------|
|--------------------------------------------------------------------|
|--------------------------------------------------------------------|
|--------------------------------------------------------------------|
|-000-0-0-0-0-000-000-0-0-0-0-000-0-0-000-0-0-0-0-11111111-44444444--|


Riff 2
|---------------------------------------------------------|
|---------------------------------------------------------|
|---------------------------------------------------------|
|---------------------------------------------------------|
|---------------------------------------------------------|
|--333-333-333-222-222-222-333-333-333-666666555555-------|


Riff 3
|-----------------------------------------------------------------------|
|-----------------------------------------------------------------------|
|-----------------------------------------------------------------------|
|-9-7-7-7-7-7-7-7-9-9-9-101010-13-13-12121212121212-101010--------------|
|-7-5-5-5-5-5-5-5-7-7-7-8-8-8--11-11-10101010101010-8-8-8-11111111111111|
|---------------------------------------------------------9-9-9-9-9-9-9-|

Riff 4
|--------------------------------------------------------------|
|--------------------------------------------------------------|
|--------------------------------------------------------------|
|--------------------------------------------------------------|
|--7h8--------7h8---7h10—7h8-7h8---------------7p5----5555-----|
|-----000000-----0----------------------000000------0-3333-----|

|--------------------------------------------------------------|
|--------------------------------------------------------------|
|--------------------------------------------------------------|
|--------------------------------------------------------------|
|--7h8--------7h8---7h10—7h8-7h8---------------7p5----6666-----|
|-----000000-----0----------------------000000------0-4444-----|

Riff 5
|-------------------------------------------------------------------|
|-------------------------------------------------------------------|
|-------------------------------------------------------------------|
|--5—--5-5---5-5-5--------------------------------------------------|
|--5---5-5---5-5-5------2-3-3-4-4-0-0-------------------------------|
|--3---3-3---3-5-3--------------------------------------------------|

Riff 6
|-------------------------------------------------------------------|
|-------------------------------------------------------------------|
|-------------------------------------------------------------------|
|--4—--4-4---4-4-4--------------------------------------------------|
|--4---4-4---4-4-4------2-3-3-4-4-0-0-------------------------------|
|--2---2-2---2-2-2--------------------------------------------------|

Riff 7
|-------------------------------------------------------------------|
|-------------------------------------------------------------------|
|-------------------------------------------------------------------|
|--2—--2-2---2-2-2--------------------------------------------------|
|--2---2-2---2-2-2------2-3-3-4-4-0-0-------------------------------|
|--0---0-0---0-0-0--------------------------------------------------|

Riff 8
|------------------------------------------------------------------------|
|------------------------------------------------------------------------|
|------------------------------------------------------------------------|
|-7-5-5-5-5-5-5-5-7-7-7-8-8-8-11111010101010101010-8-8-8-----------------|
|-5-3-3-3-3-3-3-3-5-5-5-6-6-6-9-9—8-8-8-8-8-8-8-8—-6-6-6-9-9-9-9-9-9-9---|
|--------------------------------------------------------7-7-7-7-7-7-7---|

And the little thing at the end
|---------------------------|
|---------------------------|
|---------------------------|
|----8-8-8-7-8--------------|
|----6-6-6-5-6--------------|
|---------------------------|
Suggest correction
Creating personal tab
Creating personal tab
You can edit any tab online and save it as your Personal.

You can edit, replace or remove any tab part or add personal notes – all changes will be seen only by you.

Personal tabs can be accessed anytime from any device, even offline.
Learn more »
Give kudos to tab author, rate the tab!
1 2 3 4 5
comments
print report bad tab
guest
You may want to rate the tab now too:
select rating
Wanna post a correction for this tab? Suggest correction