Oops, an error
Loading. Please wait.

World Painted Blood tab

version 4
version 4
by Slayer
1,956 views 1 this week
1 commentread comment
1 2 3 4 5
x 3
add to favorites
×
Save as Personal and add changes to this tab that will be seen only by you. Learn more ›
×
You can save this tab as Personal to edit and correct it or add notes. All changes will be seen only by you. Learn more »
launch autoscroll
font size
0
reset
how to read this tab
guitar tuner
backing track
0:00
0:00
edit
Autoscroll
slow
fast
+/-
esc
set tempo
stop
SONG : World Painted Blood
ALBUM : World Painted Blood
ARTISTt : Slayer
TUNING : Eb
DIFFICULTY : Novice

Intro Riff
Eb||-------------------------------------------------|-----------------||
Bb||-------------------------------------------------|-----------------||
Gb||-------------------------------------------------|-----------------||
Db||-------------------------------------------------|-------6---------||
Ab||----666-555-111-222-0----------------------------|-------6---------||
Eb||-------------------------------------------------|-------4---------||
                                                         ( Hit A Chord on last Time the 
is played )

Riff 1
E||--------------------------------------------------------------------||
B||--------------------------------------------------------------------||
G||--------------------------------------------------------------------||
D||--------------------------------------------------------------------||
A||--------------------------------------------------------------------||
E||-000-000-0-0-0-0-000-000-0-0-0-0-000-0-0-0-0-000-0-0-0-0-1111-3333--||


Riff 2
Eb||-------------------------------------------------------------------||
Bb||-------------------------------------------------------------------||
Gb||-------------------------------------------------------------------||
Db||-------------------------------------------------------------------||
Ab||-------------------------------------------------------------------||
Eb||---4-4-4-4-4-4—2-2-2-2-2-2—4-4-4-4-4-4-5-5-5-5-4-4-4-4-------------||


Riff 3
Eb||------------------------------------------------------------------||
Bb||------------------------------------------------------------------||
Gb||------------------------------------------------------------------||
Db||----6-6-6-6-6-6-6-6-8-8-8-9-9-9-12-11-11-11-11-11-11-11-9---------||
Ab||----4-4-4-4-4-4-4-4-6-6-6-7-7-7-10-9--9-9---9---9----9--7--10-----||
Eb||-----------------------------------------------------------8------||


Riff 4
Eb||-------------------------------------------------------------------||
Bb||-------------------------------------------------------------------||
Gb||-------------------------------------------------------------------||
Db||-------------------------------------------------------------------||
Ab||--5h6--------5h6---5h8-6p5-5h6----------------5p4----5--5----------||
Eb||-----000000-----0--------------------00000000-----00-3--3----------||


Riff 5
Eb||-------------------------------------------------------------------||
Bb||-------------------------------------------------------------------||
Gb||-------------------------------------------------------------------||
Db||--2-- -2-2---2-2-2-------------------------------------------------||
Ab||--2---2-2---2-2-2-----4-6-6-7-6------------------------------------||
Eb||--0---0-0---0-0-0--------------------------------------------------||


Solo

The solo is just really squeals with the whammy bar traded between Jeff and Kerry, go 
with that for a bit 4 bars, then play the backing chords while the other guitarist uses 
whammy for 4 bars

Riff 6
Eb||--------------------------------------------------------|-----------||
Bb||--------------------------------------------------------|-----------||
Gb||--------------------------------------------------------|-----------||
Db||-4-4-4-4-4-4-4-4-6-6-6-7-7-7-9-8-8-8-8-8-8-8-8-6-6-6-4--|------2----||
Ab||-2-2-2-2-2-2-2-2-4-4-4-5-5-5-7-6-6-6-6-6-6-6-6-4-4-4-2--|------2----||
Eb||--------------------------------------------------------|------0----||
                            ( Hit E chord last time riff 6 is played )
Riff 7
E||----------------------------------------------------------------------||
B||----------------------------------------------------------------------||
G||----------------------------------------------------------------------||
D||---------------------------------------------------2------------------||
A||---4-4-4-4-4-4-4-4-6-6-6-8-8-8-9-8-8-8-8-8-8-8-8-6-6-6--6----2--------||
E||---2-2-2-2-2-2-2-2-4-4-4-6-6-6-7-6-6-6-6-6-6-6-6-4-4-4--4----0--------||
-||
( Hit E chord last time riff is played )


LEGEND

h = Hammer On
p = Pull Off


Riff’s number of plays

Intro riff 6  Times
Riff 1 5 Times
Riff 2 2 Times
Riff 1 4 Times
Riff 2 2 Times
Riff 3 3 Times
Riff 4 4 Times
Riff 3 2 Times
Riff 4 4 Times
Riff 3 2 Times
Riff 5 ( Solo rhythm ) 9 Times
Riff 5 8 Times
Riff 1 4 Times
Riff 2 2 Times
Riff 3 2 Times
Riff 6 3 Times
Riff 7 3 Times


Email me if you want to use my tab, I will not tolerate theft, this is my work and you 
email me if you want to use it on your site 

Cheers! :D
Suggest correction
Creating personal tab
Creating personal tab
You can edit any tab online and save it as your Personal.

You can edit, replace or remove any tab part or add personal notes – all changes will be seen only by you.

Personal tabs can be accessed anytime from any device, even offline.
Learn more »
Give kudos to tab author, rate the tab!
1 2 3 4 5
comments
print report bad tab
1 comment total.
+1 reply
IbanezBassman 140 Nov 23, 2009 08:27 PM

Wrong everything

guest
You may want to rate the tab now too:
select rating
Wanna post a correction for this tab? Suggest correction