Oops, an error
Loading. Please wait.

You Against You Tab

version 1
version 1

Whole song

Interactive

352 views 15 this week
no commentswrite comment
1 2 3 4 5
2 more votes to show rating
add to favorites
launch autoscroll
font size
0
reset
how to read this tab
guitar tuner
Autoscroll
slow
fast
+/-
esc
set tempo
stop
Help us to improve Ultimate-Guitar.com Take our survey!
×
Author
Tuning
D# G# C# F# A# D#
Artist: Slayer
Song: You Against You
Album: Repentless

Tuning: Eb, Ab, Db, Gb, Bb, Eb


Eb|-----------------------------------------------------------------------| 
Bb|-----------------------------------------------------------------------| 
Gb|-----------------------------------------------------------------------|x2 
Db|-9-9---10-10---7-7---10-10--9------------------------------------------| 
Ab|-7-7---8--8----5-5---8--8---7------------------------------------------| 
Eb|----------------------------------0-0-0-0-0-0-0-0----------------------| 
                                  PM---------------|

Eb|-----------------------------------------------------------------------| 
Bb|-----------------------------------------------------------------------| 
Gb|-----------------------------------------------------------------------| 
Db|-9-9---10-10---7-7---12-12--10-10--7-7--10-10---9----------------------| 
Ab|-7-7---8--8----5-5---10-10--8--8---5-5--8--8----7----------------------| 
Eb|-----------------------------------------------------------------------| 


Eb|------------------------------------------------------------------------| 
Bb|------------------------------------------------------------------------| 
Gb|------------------------------------------------------------------------| 
Db|-9-9---10-10---7-7---10-10--9-------------------------------------------| 
Ab|-7-7---8--8----5-5---8--8---7-------------------------------------------| 
Eb|----------------------------------0-0-0-0-0-0-0-0-----------------------|
                                  PM---------------|


Eb|------------------------------------------------------------------------| 
Bb|------------------------------------------------------------------------| 
Gb|------------------------------------------------------------------------|x2 
Db|------------------------------------------------------------------------| 
Ab|-2--2--3--3--2-2--3-3--2------------------------------------------------| 
Eb|-0--0--1--1--0-0--1-1--0----0-0-0-0-0-0-0-0-----------------------------|
                             PM--------------| 

Eb|-----------------------------------------------------------------------| 
Bb|-----------------------------------------------------------------------| 
Gb|-----------------------------------------------------------------------| 
Db|-----------------------------------------------------------------------| 
Ab|-2-2--3-3-------5-5--3-3--2-2--3-3--2----------------------------------| 
Eb|-0-0--1-1--0-0--3-3--1-1--0-0--1-1--0----------------------------------|


Eb|------------------------------------------------------------------------| 
Bb|------------------------------------------------------------------------| 
Gb|------------------------------------------------------------------------|x3
Db|------------------------------------------------------------------------| 
Ab|-2--2--3--3--2-2--3-3--2------------------------------------------------| 
Eb|-0--0--1--1--0-0--1-1--0----0-0-0-0-0-0-0-0-----------------------------|
                             PM--------------| 

Eb|-----------------------------------------------------------------------| 
Bb|-----------------------------------------------------------------------| 
Gb|-----------------------------------------------------------------------| 
Db|-----------------------------------------------------------------------| 
Ab|-2-2--3-3-------5-5--3-3--2-2--3-3--2----------------------------------| 
Eb|-0-0--1-1--0-0--3-3--1-1--0-0--1-1--0----------------------------------|


Eb|------------------------------------------------------------------------| 
Bb|------------------------------------------------------------------------| 
Gb|------------------------------------------------------------------------| 
Db|------------------------------------------------------------------------| 
Ab|-2--2--3--3--2-2--3-3--2------------------------------------------------| 
Eb|-0--0--1--1--0-0--1-1--0------------------------------------------------|


Eb|-------------------------------------------------| 
Bb|-------------------------------------------------| 
Gb|------------Gary Holt Solo-----------------------| 
Db|-------------------------------------------------| 
Ab|---------------------------------------------- --| 
Eb|-------------------------------------------------|


************************************
| PM  Palm Mute                    |
************************************
Suggest correction
Give kudos to tab author, rate the tab!
1 2 3 4 5
comments
print report bad tab
guest
You may want to rate the tab now too:
select rating
Wanna post a correction for this tab? Suggest correction