Oops, an error
Loading. Please wait.

Dig Me Out Tab

8,270 views 30 this week
no commentswrite comment
1 2 3 4 5
excellent!
x 9
add to favorites
launch autoscroll
font size
0
reset
how to read this tab
guitar tuner
Tab Pro tools
  • play this tab
  • loop segment
  • change instrument
  • show fretboard
  • metronome
Autoscroll
slow
fast
+/-
esc
set tempo
stop
Contributor
Difficulty
intermediate
-------------------------------------------------------------------------------
                             Dig Me Out - Sleater-Kinney
-------------------------------------------------------------------------------

Tabbed by: me - Ankhe
Email: akari4@o2.pl

Tuning: standard, EADGBE

Lead guitar tabbed, rhythm guitar shown only as chords :)

Chords:

  G#5 C#5  D5  B5 D#5  B5 A#5  A5 G#5
e|-x---x---x---x-|-x-|-x---x---x---x-|
B|-x---x---x---x-|-x-|-x---x---x---x-|
G|-x---6---7---4-|-8-|-x---x---x---x-|
D|-6---6---7---4-|-8-|-9---8---7---6-|
A|-6---4---5---2-|-6-|-9---8---7---6-|
E|-4---x---x---x-|-x-|-7---6---5---4-|

Intro

e|-----------------|-----------------|-----------------|-----------------|
B|-7-7-7---9-9-9---|-7-7-7---9-9-9---|-----------------|-----------------|
G|-7-7-7---6-6-6---|-7-7-7---6-6-6---|-9-9-7-7-9-9-7-7-|-----------------|
D|-------6-6-6-6-6-|-------6-6-6-6-6-|-9-9-7-7-9-9-7-7-|-9-9-9-9---------|
A|-----------------|-----------------|---------------7-|-9-9-9-9---------|
E|-----------------|-----------------|-----------------|-----------------|

Verse
                                                                
  G#5     C#5       G#5     C#5        D5                B5  <- rhythm guitar
e|-----------------|-----------------|-----------------|-----------------| 
B|-7-7-7---9-9-9---|-7-7-7---9-9-9---|-----------------|-----------------|
G|-7-7-7---6-6-6---|-7-7-7---6-6-6---|-9-9-7-7-9-9-7-7-|-----------------|
D|-------6-6-6-6-6-|-------6-6-6-6-6-|-9-9-7-7-9-9-7-7-|-9-9-9-9-9-9-9-6-|
A|-----------------|-----------------|---------------7-|-9-9-9-9-9-9-9-6-|
E|-----------------|-----------------|-----------------|-----------------|

Chorus

   B5               D#5               G#5                B5
e|-----------------|-----------------|-----------------|-----------------|
B|-4-4-4-4-4-4-4-4-|-------4-------4-|-2-2-2-2-2-2-2-2-|-----4-4-----2---|
G|-----------------|-3h4p3---3h4p3---|-----------------|-3-3-----4-4---3-|
D|-----------------|-----------------|-----------------|-----------------|
A|-----------------|-----------------|-----------------|-----------------|
E|-----------------|-----------------|-----------------|-----------------|

   B5               D#5               G#5                B5
e|-----------------|-----------------|-----------------|-----------------|
B|-4-4-4-4-4-4-4-4-|-------4-------4-|-2-2-2-2-2-2-2-2-|-----------------|
G|-----------------|-3h4p3---3h4p3---|-----------------|-4-4-4-4-3-3-3-3/|
D|-----------------|-----------------|-----------------|-----------------|
A|-----------------|-----------------|-----------------|-----------------|
E|-----------------|-----------------|-----------------|-----------------|

Bridge

       B5               A#5                A5               G#5
e|-2-----2-----2---|-----------------|-2-----2-----2---|-----------------|
B|---3-----3-----3-|-----------------|---3-----3-----3-|-----------------|
G|-----4-----4-----|-3-3-4-4-3-3-----|-----4-----4-----|-1-1-2-1---------|
D|-----------------|-------------2---|-----------------|---------4--2----|
A|-----------------|-----------------|-----------------|-----------------|
E|-----------------|-----------------|-----------------|-----------------|

| h  hammer-on
| p  pull-off


Thanks for watching. Comments/ratings appreciated.
comments
print report bad tab
I want to post or [tab]
guest
You may want to rate the tab now too:
select rating
Please do not post tabs as comments. Select "correction" instead!