Oops, an error
Loading. Please wait.

Jumpers Tab

version 2
version 2

Whole song

Interactive

9,661 views 27 this week
no commentswrite comment
1 2 3 4 5
x 5
add to favorites
launch autoscroll
font size
0
reset
how to read this tab
guitar tuner
Autoscroll
slow
fast
+/-
esc
set tempo
stop
Help us to improve Ultimate-Guitar.com Take our survey!
×
Artist:Sleater-Kinney
Song:Jumpers
Tabbed by:Carolyn O.

Guitar 1

Intro/Verse: *First chord is a down stroke.all rest it up.
E---------------------|-------------------------------]
B----7-7-7-7-7-7-77-5-|7-7-7-7-7-7-7-77-5-------------]
G----x-x-x-x-x-x-xx-x-|x-x-x-x-x-x-x-xx-x-------------]
D----x-x-x-x-x-x-xx-x-|x-x-x-x-x-x-x-xx-x-------------]
A--7-7-7-7-7-7-7-77-7-|7-7-7-7-7-7-7-77-7-------------]
E--0------------------|-------------------------------]

"Lonely as a cloud"
E----------------------------------------------------------------------]
B----------------------|--------------------|--------------------------]
G----------------------|--------------------|--------------------------]
D---5---5-----5-7-5----|-5---5-------5-7-5--|5---5----5/7-7-99-7/5-----]
A-----77---77-------7--|---77--77--7-------7|--77--77------------------]
E----------------------|--------------------|--------------------------]

E-----------------------------]
B-----------------------------]
G-----------------------------]
D-5----5----------------------] REAPEAT
A---77---77---77--5----5------]
E-------------------7----7----]

Back to intro/verse
then back to"Lonely as a cloud"

SOLO:
      x2                *after last note/randomly slide up
E----------------------|------------------------------]
B----------------------|------------------------------]
G-------16-------------|-------16--14-13--14~---------]
D-14h12----14-14-14h16-|-14H16------------------------]
A----------------------|------------------------------]
E----------------------|------------------------------]


*Use a lil whammy to get the sound.
E--------------------------]
B--------------------------]
G--------------------------]
D---9~~~--9/0------5~------]
A-------------10---7~------]
E------------------0~------]

E--------------------------------------------------------------]
B--7~---5~--3~---0~------------5/7-77~--5~--3~--0~------5/7~---]
G-------------------2~-----------------------------------------]
D------------------------4--2-----------------------5~---------]
A--------------------------------------------------------------]
E--------------------------------------------------------------]

Back to verse.
and end.


any comments or questions email
exploding_robots@yahoo.com



Suggest correction
comments
print report bad tab
guest
You may want to rate the tab now too:
select rating
Wanna post a correction for this tab? Suggest correction