Oops, an error
Loading. Please wait.

Jumpers Tab

version 3
version 3

Whole song

1,182 views 3 this week
no commentswrite comment
1 2 3 4 5
please rate
add to favorites
launch autoscroll
font size
0
reset
how to read this tab
guitar tuner
Autoscroll
slow
fast
+/-
esc
set tempo
stop
Help us to improve Ultimate-Guitar.com Take our survey!
×
Author
-------------------------------------------------------------------------------
                        JUMPERS - Sleater-Kinney
-------------------------------------------------------------------------------
Tabbed by: Levi Hansen
E-mail: hansenlevi0112@gmail.com

Tuning: Standard

    Intro/Verse:
   
      GT I:

e|-2--2--2--2--2--2-2-0-3-2--2--2--2--2--2--2-2-0-|     \
B|-0--0--0--0--0--0-0-0-0-0--0--0--0--0--0--0-0-0-|      \
G|------------------------------------------------|       \
D|------------------------------------------------|         x4
A|------------------------------------------------|       /
E|------------------------------------------------|      /

     GT II:   

e|------------------------------------------------------------------|     \
B|------------------------------------------------------------------|      \
G|------------------------------------------------------------------|       \
D|-2-2-2-2-2-2-2-2-2-2-2-2-2-2-2-2-5-5-5-5-5-5-5-5-7-7-7-7-7-7-7-7--|         x4
A|-2-2-2-2-2-2-2-2-2-2-2-2-2-2-2-2-5-5-5-5-5-5-5-5-7-7-7-7-7-7-7-7--|       /
E|-0-0-0-0-0-0-0-0-0-0-0-0-0-0-0-0-3-3-3-3-3-3-3-3-5-5-5-5-5-5-5-5--|     /

Pause for drums.
 
Chorus: (GT II plays same thing, this is GT I)


e|---------------------------------------------------------------------------|
B|---------------------------------------------------------------------------|
G|---------------------------------------------------------------------------|
D|-2-2-0-0-2-2-0-0-2-2-0-0-2-2-0-0-5-5-4-4-5-5-4-4--7-6-7--5--2-2-0-0-2-2-0--|
A|---------------------------------------------------------------------------|
E|---------------------------------------------------------------------------|

e|-------------------------------------7-------------------------------------|
B|---------------------------------------7-----------------------------------|
G|---------------------------------------------------------------------------|
D|0-2-2-0-0-2-2-0-0-5-5-4-4-5-5-4-7--7-------2-2-0-0-2-2-0-0-2-2-0-0-2-2-0-0-|
A|---------------------------------------------------------------------------|
E|---------------------------------------------------------------------------|

e|---------------------------------------------------------------------------|
B|---------------------------------------------------------------------------|
G|---------------------------------------------------------------------------|
D|-5-5-4-4-5-5-4-4--7-6-7-5--2-2-0-0-2-2-0-0-2-2-0-0-2-2-0-0-5-5-4-4-5-5-4-4-|
A|---------------------------------------------------------------------------|
E|---------------------------------------------------------------------------|

e|-------------|
B|-------------|
G|-------------|
D|-4-7-5--4-7--|
A|-------------|
E|-------------|

Go back to verse

Play chorus without a drum break

   Solo 1:

e|-----------------------------------------------7-5----4-5-6-7-8-9-10-11----|
B|-5--3--5-5--3--5--3--5--3--5-5--3--5--3--5--3------------------------------|
G|---------------------------------------------------------------------------|
D|---------------------------------------------------------------------------|
A|---------------------------------------------------------------------------|
E|---------------------------------------------------------------------------|

e|-----------------------------------------------7-5-------------------------|
B|-5--3--5-5--3--5--3--5--3--5-5--3--5--3--5--3--------4--3--4--4b-----------|
G|---------------------------------------------------------------------------|
D|---------------------------------------------------------------------------|
A|---------------------------------------------------------------------------|
E|---------------------------------------------------------------------------|

  Bridge 1:

e|-2h3-2h3-2--|  \
B|------------|   \
G|------------|    \
D|------------|       x12
A|------------|    /
E|------------|   /

   Play Solo 1 again
  
   Play Bridge 1 again

   Play Solo  1 again

  Bridge 2:
 
e|----------------------------|
B|----------------------------|
G|-3b----2/1---0--------------|
D|----------------------------|
A|----------------------------|
E|----------------------------|

    Solo 2:

e|-2---0-----------------1h3--2--0-----------2h4-|
B|--------3--2-1--0-----------------3--2-0-------|
G|-------------------3---------------------------|
D|-----------------------------------------------|
A|-----------------------------------------------|
E|-----------------------------------------------|

     Play verse

   Outro:
e|-----------------------------------|----------------------------------|  \
B|-----------------------------------|----------------------------------|   \
G|-----------------------------------|----------------------------------|    \
D|-2-2-2-2-2-2-2-2-2-2-2-2-2-2-2-2---|--2-2-2-2-2-2-2-2-7-7-7-7-7-7-7-7-|     play 3 times .
A|-2-2-2-2-2-2-2-2-2-2-2-2-2-2-2-2---|--2-2-2-2-2-2-2-2-7-7-7-7-7-7-7-7-|    / then end with E  
E|-0-0-0-0-0-0-0-0-0-0-0-0-0-0-0-0---|--0-0-0-0-0-0-0-0-5-5-5-5-5-5-5-5-|   /

Hope this helped. 
  
************************************

| /   slide up
| \   slide down
| h   hammer-on
| p   pull-off
| ~   vibrato
| +   harmonic
| x   Mute note
| b   Bend
| pb  Pre-bend
| br  Bend release
| pbr Pre-bend release
| brb Bend release bend

************************************
Suggest correction
What's this?
You can suggest a correction to this tab. Community and Mods will review your correction and vote to approve or reject it.
comments
We did not receive enough feedback on this tab! Please rate:
print report bad tab
1 2 3 4 5
guest
You may want to rate the tab now too:
select rating
Please do not post tabs as comments. Select "correction" instead!