Oops, an error
Loading. Please wait.

Off With Your Head Tab

468 views 3 this week
no commentswrite comment
1 2 3 4 5
please rate
add to favorites
launch autoscroll
font size
0
reset
how to read this tab
guitar tuner
Autoscroll
slow
fast
+/-
esc
set tempo
stop
Help us to improve Ultimate-Guitar.com Take our survey!
×
Author
Difficulty
novice
tabbed by: ZiR23

Tuning:standard.

quite possibly my favorite song of Sleater-Kinney.....OFF WITH YOUR HEAD.


INTRO

guitar 1
e|---------------------------------------------------------------|
B|---------------------------------------------------------------|
G|---------------------7-----7-----------------------------------|
D|-----5---5/7------------------------5---------------9---7------|
A|-7-----7-----7----5-----5-------7-----7--5-------7---------7---|
E|--------------------------------------------7------------------|
 |
 |
e|-------------------------------------------------------------------|
B|-------------------------------------------------------------------|
G|---------------------7-----7---------------------------------------|
D|-----5---5/7------------------------5------------------------------|
A|-7-----7-----7----5-----5-------7-----7--5-------5/7-7-7--5/7-7-7--|
E|--------------------------------------------7----------------------|

INTRO 
guitar 2

e|-----------------------------------------------------------------|
B|-----------------------------------------------------------------|
G|-----------------------------------------------------------------|
D|--9--9-9-9-9-9---7--7-7-7-7-7------------------------------------| repeat x2
A|--7--7-7-7-7-7---5--5-5-5-5-5--7--7-7-7-7-7-7-7-7-7-7-7-7-7-7----|
E|-------------------------------5--5-5-5-5-5-5-5-5-5-5-5-5-5-5----|




verse: Guitar 2 only

e|------------------------------------------------------------------------------------|
B|------------------------------------------------------------------------------------|
G|------------------------------------------------------------------------------------|
D|-9---9-9-9---9/12-12-12-12-12-12-12-12------------------------12-12-12-12-12-12-12--|repeat X2
A|-7---7-7-7---7/10-10-10-10-10-10-10-10--12---12-12-12---12-12-10-10-10-10-10-10-10--|
E|----------------------------------------10---10-10-10---10-10-----------------------|





Chorus: guitar 1
e|-------------------------------------|           |---------------------------------------------|
B|-------------------------------------|           |---------------------------------------------|
G|-------------------------------------| repeat 3x,|------------------------------------9~~~-----|
D|-----5-----------4-4---------9-9-----| on 4th    |------5-----------4-4---------------x--------|
A|-7-7---7-5-5---------5-5-7-7---------|     time  |--7-7---7-5-5---------5-5-7-7-------7~~~-----|
E|-------------7-7---------------------|           |--------------7-7-------------7-7------------|


CHORUS GUITAR 2

e|-------------------------------------|
B|-------------------------------------|
G|-------------------------------------|
D|--9-9-----7-7------------------------| REPEAT X4
A|--7-7-0-0-5-5-0-0-9-9-----7-7--------|
E|--0-0-0-0-0-0-0-0-7-7-0-0-5-5-0-0----|



back to VERSE

then CHORUS


BRIDGE
Guitar 1

e|-------------------------------------|
B|-------------------------------------|
G|---------------------------------9---|
D|-------------------------------------|
A|--7-7-7-7-7-7-7-7-7-7-7-7-7-7-7------|
E|-------------------------------------|
 heavily palm mute all notes (do triplets on the a string when there's triplets on hi-hat)


BRIDGE 
Guitar 2

e|-------------------------------------------------------|
B|-------------------------------------------------------|
G|-------------------------------------------------------|REPEAT X2
D|-------------------------------------------------------|
A|-----7--5~----------------7--5~------------------------|
E|------------7--5~~--------------7--5-\4\3\2\1\-0~~~~---|



"come on i want a new reason to feel.....a way to know that all i see is real"

Guitar 1(?) + Guitar 2
e|--------------------------------------------------------------|
B|--------------------------------------------------------------|
G|--------------------------------------------------------------|repeat X4
D|-9--7-9--7-9---7-9--7-----------------------------------------|
A|-7--5-7--5-7---5-7--5--7-7-7-7-7-7-7-7-7-7-7-7-7-7-7-7--------|
E|-----------------------5-5-5-5-5-5-5-5-5-5-5-5-5-5-5-5--------|


CHORUS 

then

a Variation on verse, same chords...listen for differences.


DONE!!!!

************************************

| /   slide up
| \   slide down
| h   hammer-on
| p   pull-off
| ~   vibrato
| +   harmonic
| x   Mute note
| b   Bend
| pb  Pre-bend
| br  Bend release
| pbr Pre-bend release
| brb Bend release bend

************************************
Suggest correction
What's this?
You can suggest a correction to this tab. Community and Mods will review your correction and vote to approve or reject it.
comments
We did not receive enough feedback on this tab! Please rate:
print report bad tab
1 2 3 4 5
guest
You may want to rate the tab now too:
select rating
Please do not post tabs as comments. Select "correction" instead!