Oops, an error
Loading. Please wait.

Steep Air chords

40 views 1 this week
no commentswrite comment
1 2 3 4 5
3 more votes to show rating
add to favorites
×
Save as Personal and add changes to this tab that will be seen only by you. Learn more ›
×
You can save this tab as Personal to edit and correct it or add notes. All changes will be seen only by you. Learn more »
launch autoscroll
font size
0
reset
transpose
0
reset
simplify chords
display chords
guitar tuner
edit
Autoscroll
slow
fast
+/-
esc
set tempo
stop
About this tab version
During the verse and chorus I have written the chords that Guitar 2 play, but the Guitar 1 solos. Sounds better when playing this with only one guitar. Was this info helpful? Yes No
Strumming
There is no strumming pattern for this song yet. and get +5 IQ
Tabbed Guitar 1 during solos but Guitar 2 chords
during chorus and verses.

[Chords]
     A5  Asus4  G5
e|-------------------|
B|-------------------|
G|-------------------|
D|---7-----7-----5---|
A|---7-----5-----5---|
E|---5-----5-----3---|

[Intro]
     A5
e|---------3-------------------3----------|
B|-------------5---------3---------5------|
G|-----------5---5-----5---------5---5----|
D|---7------------------------------------|
A|---7------------------------------------|
E|---5------------------------------------|

     A5
e|---------3-----------------------3-----------|
B|-------------5---------3-3---------5---5-----|
G|-----------5---5-----5-----5---------5---5---|
D|---7-----------------------------------------|
A|---7-----------------------------------------|
E|---5-----------------------------------------|

     A5
e|---------3-------------------3----------|
B|-------------5---------3---------5------|
G|-----------5---5-----5---------5---5----|
D|---7------------------------------------|
A|---7------------------------------------|
E|---5------------------------------------|

     A5
e|---------3-----------------------3---------|
B|-------------5---------3-3-----------5-----|
G|-----------5---5-----5-----5-------5---5---|
D|---7---------------------------------------|
A|---7---------------------------------------|
E|---5---------------------------------------|

A5 Asus4
A5 Asus4

[Verse 1]
A5                                    Asus4
  I'm tired of waiting on a ship that won't leave shore
A5                                    Asus4
  I'm tired of waiting on a ship that won't leave shore
A5             G5             Asus4
  The water's bloody with the ones who came before
A5             G5             Asus4
  The water's bloody with the ones who came before

[Chorus]
A5                        G5
Hey, she made you say it, yeah they'll make you say it
Asus4
Yeah, you know you said it alot
A5                        G5
Hey, you never stay for, now you gotta pray for
Asus4                                
Something better than what you've got

[Solo]

e|-------------------------------------------|
B|---------5b---------------5----------------|
G|-----5-7----7-7-5-------5---5--7-7-7-5-----|
D|---7----------------7-7----------------7---|
A|-------------------------------------------|
E|-------------------------------------------|
(x2)

A5 Asus4
A5 Asus4

[Verse 2]
A5                                      Asus4
  I'm tired of waiting on a plane that don't have wings
A5                                      Asus4
  I'm tired of waiting on a plane that don't have wings
A5              G5             Asus4
  The runway's rotten with the dirt and weeds
A5              G5             Asus4
  The runway's rotten with the dirt and weeds

[Chorus]
A5                        G5
Hey, she made you say it, yeah they'll make you say it
Asus4
Yeah, you know you said it out loud
A5                        G5
Hey, you never stay for, now you gotta pray for
Asus4                                
Something better than what you've got

[Solo]
e|-------------------------------------------|
B|---------5b---------------5----------------|
G|-----5-7----7-7-5-------5---5--7-7-7-5-----|
D|---7----------------7-7----------------7---|
A|-------------------------------------------|
E|-------------------------------------------|
(x2)

[Verse 3]
A5
 I booked my ticket
Asus4
 Packed my bags
A5
 Flight is leaving
Asus4
 Our time has passed
A5            G5            Asus4
 I'm tired of knocking on a door that just won't budge
A5                 G5
 Locked out of the engine
       Asus4
It's a wheel that you have spun
A5             G5               Asus4
  But who's to say I don't have wings?
A5             G5               Asus4
  But who's to say I don't have wings?

[Outro]
     A5
e|---------3-------------------3----------|
B|-------------5---------3---------5------|
G|-----------5---5-----5---------5---5----|
D|---7------------------------------------|
A|---7------------------------------------|
E|---5------------------------------------|

     A5
e|---------3-----------------------3-----------|
B|-------------5---------3-3---------5---5-----|
G|-----------5---5-----5-----5---------5---5---|
D|---7-----------------------------------------|
A|---7-----------------------------------------|
E|---5-----------------------------------------|

     A5
e|---------3-------------------3----------|
B|-------------5---------3---------5------|
G|-----------5---5-----5---------5---5----|
D|---7------------------------------------|
A|---7------------------------------------|
E|---5------------------------------------|

     A5              Asus4
e|---------3--------------|
B|-------------5----------|
G|-----------5---5--------|
D|---7----------------7---|
A|---7----------------5---|
E|---5----------------5---|

            
            
Suggest correction
Creating personal tab
Creating personal tab
You can edit any tab online and save it as your Personal.

You can edit, replace or remove any tab part or add personal notes – all changes will be seen only by you.

Personal tabs can be accessed anytime from any device, even offline.
Learn more »
Give kudos to tab author, rate the tab!
1 2 3 4 5
comments
print report bad tab
guest
You may want to rate the tab now too:
select rating
Wanna post a correction for this tab? Suggest correction