Oops, an error
Loading. Please wait.

Holy Mountain Tab

version 1
version 1

Whole song

Interactive

12,781 views 81 this week
no commentswrite comment
1 2 3 4 5
excellent!
x 2
add to favorites
launch autoscroll
font size
0
reset
how to read this tab
guitar tuner
Tab Pro tools
  • play this tab
  • loop segment
  • change instrument
  • show fretboard
  • metronome
Autoscroll
slow
fast
+/-
esc
set tempo
stop
Contributor
Sleep - "Holy Mountain"
From the album "Sleep's Holy Mountain" (1992)
Tab by matt062286 (3/23/2012 v3)


C Tuning (C F Bb Eb G C)



INTRO (0:00)

C |---------------------------------------------|
G |---------------------------------------------|
Eb|---------------------------------------------|
Bb|---------------------------------------------|
F |---------------------------------------------|
C |-0-------------------------------(0)---------|


RIFF 1 (0:08) 

C |-----------------------------------------------------------------------------------------|
G |-----------------------------------------------------------------------------------------|
Eb|-----------------------------------------------------------------------------------------|
Bb|--/9---9-9~-------/9---9-9--------/9-9--/9-9--/9-9---9-9~------/9---9-9~-----------------|
F |--/7---7-7~-------/7---7-7--------/7-7--/7-7--/7-7---7-7~------/7---7-7~--------9---9-8--|
C |-------------0---0-----------0---0-------------------------0--0-----------0--(0)7---7-6--|


RIFF 2 (1:11)

C |-----------------------------------------------------------------------------------|
G |-----------------------------------------------------------------------------------|
Eb|-----------------------------------------------------------------------------------|
Bb|-----------------------------------------------------------------------------------|
F |--14----14----------14----14----------14----14---------21-20-19-21-20-19-21-20-19--|
C |--12----12-----0----12----12-----0----12----12-----0---19-18-17-19-18-17-19-18-17--|


RIFF 3 (2:18)

C |----------------------------------------------------------------|
G |----------------------------------------------------------------|
Eb|----------------------------------------------------------------|
Bb|----------------------------------------------------------------|
F |--5h7-7---5h7-7---5h7-7---5h7-5h7-7---5h7-5h7-5h7-8---7---5~~---|
C |--0---0---0---0---0---0---0---0---0---0---0---0---6---5---3~~---|


INTERLUDE 1 (3:59)

C |----------------------------------------------------------------------|
G |----------------------------------------------------------------------|
Eb|----------------------0-----------------------------------------------|
Bb|--------------------------0h2-----------------------------------------|
F |-------------0--1--2------------------------------0--1----------------|
C |---0----3-------------------------------0----3----------0--3b---0-----|


INTERLUDE 2 (5:06)

C |----------------------------------------------------------------------|
G |----------------------------------------------------------------------|
Eb|----------------------0-----------------------------------------------|
Bb|--------------------------0h2-----------------------------------------|
F |-------------0--1--2------------------------------0--1----------------|
C |---0----3~~~----------------------------0----3~~~-------0--3b---0-----|



INTRO              x1
RIFF 1             x6
RIFF 2             x4
RIFF 1             x4
RIFF 3            x12
RIFF 2             x4
INTERLUDE 1        x4
INTERLUDE 2        x2
SOLO (untabbed)
INTERLUDE 2        x2
RIFF 1             x4
RIFF 3            x12


Lyrics:

Slumber killed by rays of the new red sun arising
Dreamer wakens to spectral gaze of light rays shining
Black steed carries him across the astral sand
Rides alone is the man from the magic caravan

I believe the signs of the reptile master
Sunbound spacepod rising faster
Earth drenched in black under starless sky above
Man on the mountain sets free the holy dove

Look onto the rays of the new stoner sun rising
Sonic Titan rides out on clouds of new horizon
Look onto the rays of the new stoner sun rising
Sonic Titan rides out on clouds of new horizon

Look onto the rays of the new stoner sun rising
Sonic Titan rides out on clouds of new horizon
Look onto the rays of the new stoner sun rising
Sonic Titan rides out on clouds of new horizon
comments
We did not receive enough feedback on this tab! Please rate:
print report bad tab
1 2 3 4 5
I want to post or [tab]
guest
You may want to rate the tab now too:
select rating
Please do not post tabs as comments. Select "correction" instead!