Oops, an error
Loading. Please wait.

Everyday Tab

519 views 1 this week
2 commentsread comments
1 2 3 4 5
1 last vote to show rating
add to favorites
launch autoscroll
font size
0
reset
how to read this tab
guitar tuner
Autoscroll
slow
fast
+/-
esc
set tempo
stop
Help us to improve Ultimate-Guitar.com Take our survey!
×
Author
---------------------------------------------------------------
                    Everyday - Sleep Parade
----------------------------------------------------------------
Tabbed by: Kristyn Lee
Email: spot_the_village_loony_836@hotmail.com

http://www.myspace.com/sleepparade

Tuning: Drop C

I finally updated it.
I tabbed this from youtube, i don't have an mp3 of the song.
If anybody can send it to me that'd be great.

Intro/verse
D|---------------------------------------|\
A|-----5------3------6-----5------5p3----| \
F|---------------------------------------|  \
C|---------------------------------------|   \
G|--0-----0------0------0-----0----------|    \
C|---------------------------------------|     \
                                                \
D|---------------------------------------|       \
A|-----5------3------6-----5------5p3----|        \
F|---------------------------------------|         \
C|---------------------------------------|          \ 
G|--0-----0------0------0-----0----------|           \
C|---------------------------------------|            \
                                                       | play x 4
D|---------------------------------------|            /        
A|-----5------3------6/8-----5------5p3--|           /
F|---------------------------------------|          /
C|---------------------------------------|         /
G|--0-----0------0--------0-----0--------|        /
C|---------------------------------------|       /
                                                /
D|---------------------------------------|     / 
A|------5-----3-----6-----5--------------|    /
F|------4-----2-----5-----4-4^-----------|   /
C|---------------------------------------|  /
G|--3------3-----3-----3-----------------| /
C|---------------------------------------|/


D|----------------------------|
A|----------------------------|
F|----------------------------|
C|----------------------------|
G|--777-33333333-55555555-----|
C|--777-33333333-55555555-----|
    ... ........ ........
chorus
D|--------------------------------|
A|----5-----5----5----5-----------|
F|----5-----5----5----5-----------|x4
C|--3~---3~---3~---3~----5-5------|
G|--3~---3~---3~---3~----5-5------|
C|--3~---3~---3~---3~----5-5------|

repeat verse and chorus.

quiet part is the same as verse. 

3:10
D|---------------|
A|--8888-8888----|
F|--7777-7777----|
C|--5555-5555----|
G|---------------|
C|---------------|
3:13
D|-----------------------|
A|-10101010-13131313-----|
F|-9-9-9-9--12121212-----|
C|-7-7-7-7--10101010-----|
G|-----------------------|
C|-----------------------|

3:30
D|-----------------------|
A|--11~-11~--8~----------|
F|--10~-10~--7~----------|
C|---8~--8~--5~----------|
G|-----------------------|
C|-----------------------|

3:40  acoustic part   "who we are..."
  play x6
D|--------------|------------------|
A|-----101010---|------666-----88--|
F|-----9-9-9----|------555-----77--|
C|-777-7-7-7----|--333-333-3/5555--|
G|-777-7-7-7----|--333-333-3/5555--|
C|-777-7-7-7----|--333-333-3/5555--|

there are some palm muted notes for a while

4:53
D|------------------------------------------------|
A|------------------------------101010----101010--|
F|------------------------------9-9-9-----9-9-9---|
C|--777-77--777-77--777-77---77-7-7-7--77-7-7-7---|
G|--777-77--777-77--777-77---77-7-7-7--77-7-7-7---|
C|--777-77--777-77--777-77---77-7-7-7--77-7-7-7---|

5:03
D|--------------------------------------------------|
A|--101010-1010--131313-1313--888-88--101010-1010---|
F|--9-9-9--9-9---121212-1212--777-77--9-9-9--9-9----|
C|--7-7-7--7-7---101010-1010--555-55--7-7-7--7-7----|
G|--7-7-7--7-7---101010-1010--555-55--7-7-7--7-7----|
C|--7-7-7--7-7---101010-1010--555-55--7-7-7--7-7----|

no solo yet. great song.

| /  slide up
| \  slide down
| h  hammer-on
| p  pull-off
| ~  vibrato
| +  harmonic
| x  Mute note
===============================================================
Suggest correction
Give kudos to tab author, rate the tab!
1 2 3 4 5
comments
print report bad tab
2 comments total.
0 reply
metalz4life 212 Mar 25, 2013 02:24 AM, edited on January 5 2014, 12:38 am

I tried this out but it seems off. Good effort though

0 reply
metalz4life 212 May 28, 2013 11:46 PM, edited on January 5 2014, 12:37 am

......

guest
You may want to rate the tab now too:
select rating
Wanna post a correction for this tab? Suggest correction