Oops, an error
Loading. Please wait.

Turning Page intro tab

version 1
version 1

Intro

Whole song

19,319 views 15 this week
6 commentsread comments
1 2 3 4 5
x 6
add to favorites
×
Save as Personal and add changes to this tab that will be seen only by you. Learn more ›
×
You can save this tab as Personal to edit and correct it or add notes. All changes will be seen only by you. Learn more »
launch autoscroll
font size
0
reset
how to read this tab
guitar tuner
edit
Autoscroll
slow
fast
+/-
esc
set tempo
stop
Sleeping At Last
Turning Page

Standard Tuning
Capo on 3rd fret

Update: I fixed the C chord part. I forgot to add another 0 haha.

Here's a picking pattern you can mess around with.
This is just the intro but it could work for the verses too (partly).

First Part:

      C Chord
e|----------------------|
B|--------1---0---------|
G|-----0----0---0---0---| x2
D|----------------2-----|
A|--3-------------------|
E|----------------------|

            F Chord
e|-----0------------------0--3--------|
B|---------3-------------------1-0----|
G|-------------0-------------------0--|
D|--3----3---3---3-----3--------------|
A|------------------------------------|
E|1-----------------1-----------------|

Second Part:

    C Chord
e|----------------------|
B|--------1---0---------|
G|-----0----0---0---0---| x2
D|----------------2-----|
A|--3-------------------|
E|----------------------|

             F Chord
e|-----0------------------0-3---0-------|
B|---------3------------------3---0-1---|
G|-------------0------------------------|
D|--3----3---3---3-----3----------------|
A|--------------------------------------|
E|1-----------------1-------------------|


            
            
Suggest correction
Creating personal tab
Creating personal tab
You can edit any tab online and save it as your Personal.

You can edit, replace or remove any tab part or add personal notes – all changes will be seen only by you.

Personal tabs can be accessed anytime from any device, even offline.
Learn more »
comments
print report bad tab
6 comments total. Showing first comments.
0 reply
FSH14 384 Feb 15, 2012 09:37 AM

I actually haven't seen the movies, so I was wondering if I should?? Some people say the're a waste of time so i dont know haha

0 reply
sam25 10 Mar 04, 2012 09:09 AM

You should watch them . Very good movies ive seen all of them and read te books and they are really great ifell in love with them..... but im not obsessed like somefreaks out there...:)

-1 reply
janinerr254 10 Feb 03, 2013 04:46 PM

hi!!i have a question is my tab in the C chord correct?i play the first part in this sequence..

C Chord
e|----------------------|
B|--------1---0---------|
G|----------------------| x2
D|----------------2-----|
A|-----3----------------|
E|----------------------|

guest
You may want to rate the tab now too:
select rating
Wanna post a correction for this tab? Suggest correction