Oops, an error
Loading. Please wait.

Turning Page Tab

version 1
version 1

Whole song

24,307 views 144 this week
1 commentread comment
1 2 3 4 5
excellent!
x 29
add to favorites
launch autoscroll
font size
0
reset
how to read this tab
guitar tuner
Autoscroll
slow
fast
+/-
esc
set tempo
stop
Help us to improve Ultimate-Guitar.com Take our survey!
×
Contributor
Difficulty
novice
     
Hi there!  This tab has been so difficult! Lol!  
The intro/1st verse part is PER.FEC.TION!! The tempo
picks up after that and it's a bit more difficult to
keep up with the timing.  Play along with the song to 
get it perfect :)  It may need to be tweeked here and
there, let me know what ya think :) 

**NOTE** Pay attention to the chords that have a 'x2'.  
Just play that chords pattern twice (Not the entire 
line! That would be indicated to the right side of the 
entire line tabbed.) I just didn't want to type out 
patterns again and again.  I'm lazy...





STANDARD TUNING w/
CAPO ON 3


Intro-

     C           C             F            F
e|--------------------------------0------------0--3---------------|
B|------1-0---------1-0--------------3-------------1-0------------|
G|---0-----------0-------------2------------2----------0----------|
D|---2------2----2------2------3------------3---------------------| 
A|---3-----------3-------------3------------3---------------------|
E|----------------------------------------------------------------|

     C           C             F            F      
e|---------------------------------0------------0-3---0-----------|
B|------1-0---------1-0---------------3-------------3---0-1-------|
G|---0-----------0-------------2-2----------2-2-------------------|
D|---2------2----2------2------3------------3---------------------| 
A|---3-----------3-------------3------------3---------------------|
E|----------------------------------------------------------------|





     C           C             F            F      
e|---------------------------------0------------0-3---0-----------|
B|------1-0---------1-0---------------3-------------3---0-1-------|
G|---0-----------0-------------2-2----------2-2-------------------|
D|---2------2----2------2------3------------3---------------------| 
A|---3-----------3-------------3------------3---------------------|
E|----------------------------------------------------------------|

                                                          
 I've waited a hundred years,  I'd wait a million more for you

                        
     C            C            F              F      
e|---------------------------------0------------0---3-------------|
B|------1-0---------1-0---------------3--------------1-0----------|
G|---0-----------0-------------2-2--2-------2-2---------0---------|
D|---2------2----2------2------3------------3---------------------| 
A|---3-----------3-------------3------------3---------------------|
E|----------------------------------------------------------------|

                                                             
 Nothing prepared me for, what the privilege of being yours,  would do


    G        Am       F        C
e|-----3--------3--------0-------3-----|
B|-----3--------1--------1-------1-----|
G|-----------2--------2--------0-------| x3
D|--0--------2--------3--------2-------|
A|--2--------0--------3--------3-------|
E|--3----------------------------------|

G         Am
 If I had only felt 
    F                  C     G
The warmth within your touch
         Am
If I had only seen 
        F              C     G
How you smile when you blush 
           Am
Or how you curl your lip 
         F           C
When you concentrate enough


    G       G      Am       F        
e|-----3------3-------0-------------|
B|-----3------3-------1-----1-------|
G|-----------------2--------2-------| 
D|--0------0-------2--------3-------|
A|--2------2-------0--------3-------|
E|--3------3------------------------|

             G           G
I would have known, what I was living 
Am       F -once
For all along.   What I've been living


    C    
 e|-----------------------------------|
 B|---1--1--1--1--1---1--1--1--1--1---|
 G|--0--0--0--0--0---0--0--0--0--0----| 
 D|-2--2--2--2--2---2--2--2--2--2-----|      
 A|-----------------------------------|      
 E|-----------------------------------|

   C
   For


C....


      C x2                F x2
 e|----------------------0--0--0--0------------|
 B|---1--1--1--1--1------------------1---------|
 G|--0--0--0--0--0------2--2--2--2--2----------| 
 D|-2--2--2--2--2------3--3--3--3--------------|      
 A|--------------------------------------------|      
 E|--------------------------------------------|

C
 Your love is my turning page
                                   F          
 Where only the sweetest words are made


      C        C/B         Am         G        F x2
e|----------------------------------------------0--0--0--0--------|
B|----1--1------1--1------ 1--1------3--3--------------------1----|
G|---0--0-0----0--0-0-----2--2-2----0--0-0-----2--2--2--2---2-----|
D|--2--2--------------------------------------3--3--3--3----------|
A|------------2--2------0--0--------------------------------------|
E|---------------------------------3--3---------------------------|

C                C/B         Am             
 Every kiss is a cursive line          
                  G         F
 Every touch is a redefined phrase



     G          Am         F          C
e|-----------------------------------------------|
B|----3--3-------1--1-------1--1-------1--1------|
G|---0--0-0-----2--2-2-----2--2-2-----0--0-0-----| x3
D|-----------------------------------------------|
A|-------------0--0-------3--3-------3--3--------|
E|--3--3-----------------------------------------|

G  Am                 F
 I surrender who I've been
            C   G
For who you are
        Am                F
Nothing makes me stronger than
             C     G
Your fragile heart
         Am               F
If I had only felt how it feels
      C     
To be yours, then I would have

 

     G                      Am          F x2          
e|--------------------------------------------0-------------|
B|-----3--3------3--3--------1--1-------1--1------1-1-------|
G|----0--0-0----0--0-0------2--2-2-----2--2--2-----2--------| 
D|------------------------------------3--3--3---3-----------|
A|------------------------0--0------------------------------|
E|--3--3------3--3------------------------------------------|

G            G                Am       F
Known,  what I've been living for all along.  What I've been living


     
   C/? .......
 e|---3---0-------|  **This can be played through the entire bridge
 B|----3---1-1----|    below.  Not sure what that chord would be named. 
 G|---------4-----|    At the bottom is an alternate way to pick this-
 D|---------------|    if like me, the 1 4 is quite a reach. Or- pick
 A|---------------|    this one with the 4 being an open string which
 E|---------------|    makes it easier and still sounds okay-ish, lol.

  C/?
  For... 

                 
Though we're tethered                      
To the story we must tell             
When I saw you                        
Well I knew we'd tell it well               
With a whisper                            
We will tame the vicious scenes              
Like a feather, Bring the Kingdoms to, their


Outro-
     C..    
 e|---------------------|
 B|---1--1--1--1---1----|
 G|--0--0--0--0---0-----| x2*
 D|-2--2--2--2----------|     *You can just continue this 
 A|---------------------|      through to the end or finish 
 E|---------------------|      with the Am.
    
   C          
   Knees


     Am
e|-----------------|
B|---1-0-----------|
G|-------2--0-2----| x2
D|--------------2--|
A|-----------------|
E|-----------------|





Have fun and RATE :)
cristy♥twilight




   Alt. C/?

e|---3---0-------|  This works for the bridge as well.  It
B|----3----------|  may be easier to pick out.... (I have to
G|---------5-4-5-|  just do the one above with the 4 being
D|---------------|  an open string)
A|---------------|
E|---------------|


 
Suggest correction new What's this?
You can suggest a correction to this tab. Community and Mods will review your correction and vote to approve or reject it.
comments
print report bad tab
1 comment total.
+1 reply
rickij 12 wrote on December 22 2014, 01:17 am

this is so great! for the tricky bridge part I think it sounds okay to do (listening to the song to get the speed of it)
e--3-0------
B-3-3-5-----
G------5-4-5
D-----------
A-----------
E-----------
but your way sounds good too!

I want to post or [tab]
guest
You may want to rate the tab now too:
select rating
Please do not post tabs as comments. Select "correction" instead!