Oops, an error
Loading. Please wait.

Turning Page ukulele

version 2
version 2

Whole song

  • This is a ukulele tab for Turning Page. It may tak... Show more
49 views 3 this week
no commentswrite comment
1 2 3 4 5
2 more votes to show rating
add to favorites
×
Save as Personal and add changes to this tab that will be seen only by you. Learn more ›
×
You can save this tab as Personal to edit and correct it or add notes. All changes will be seen only by you. Learn more »
launch autoscroll
font size
0
reset
transpose
0
reset
simplify chords
display chords
guitar tuner
edit
Autoscroll
slow
fast
+/-
esc
set tempo
stop
About this tab version
This is a ukulele tab for Turning Page. It may take some practice to get perfect but it sounds amazing and lines up with the actual piano part perfectly. Enjoy. Was this info helpful? Yes No
Strumming
There is no strumming pattern for this song yet. and get +5 IQ
Capo on 3

[Intro]
G|-----3-----3-----2-----2-----2---|
D|---0-----0-----0-----0-----0---0-|
A|-0-----0-----0-----0-----0-------|   (x2)
E|---------------------------------|
   C     C   Cmaj7  Cmaj7   Cmaj7

G|-----0-----0-----0-----0-----0---|
D|---1-----1-----0-----0-----0---0-|
A|-0-----0-----0-----0-----0-------|   (x2)
E|---------------------------------|
   F     F    Am     Am      Am

[Verse]
(Repeat this pattern throughout the whole verse)
G|------3-------3-------2-------2-|
D|--0-------0--------0------0-----|
A|----0-------0--------0------0---|   (x2)
E|0-------0--------0-------0------|
    C              Cmaj7

G|------0-------0-------0-------0-|
D|--1-------1--------0------0-----|
A|----0-------0--------0------0---|   (x2)
E|2-------2--------2-------2------|
      F             Am
C            Cmaj7
I've waited a hundred years
C           Cmaj7             F  Am  F  Am
I'd wait a million more for you
C         Cmaj7
Nothing prepared me for
C                Cmaj7
What the privilege of being yours
F        Am  F  Am
Would do

[Chorus]
(Same Pattern as the verse)
G|------2------2------0-------0-------0-------0------3-------3-|
D|--3------3-------0------0-------1-------1-------0------0-----|
A|----2------2-------0------0-------0-------0-------0------0---|   (x4)
E|0------0-------2-------2------2-------2-------0-------0------|
   G                Am           F                C

G         Am
If I had only felt
   F                  C     G
The warmth within your touch
        Am
If I had only seen
       F              C     G
How you smile when you blush
          Am
Or how you curl your lip
        F           C
When you concentrate enough
            G
I would have known
                 Am       F
What I was living for all along
                     C
What I've been living for

G|-----3-----3-----2-----2-----2---|
D|---0-----0-----0-----0-----0---0-|
A|-0-----0-----0-----0-----0-------|   (x2)
E|---------------------------------|
   C     C   Cmaj7  Cmaj7   Cmaj7


[Verse]
(Repeat this pattern throughout the whole verse, keep the same strumming pattern when it switches to Em)
G|------3-------3-------2-------2-|
D|--0-------0--------0------0-----|
A|----0-------0--------0------0---|   (x2)
E|0-------0--------0-------0------|
    C              Cmaj7

G|------0-------0-------0-------0-|
D|--1-------1--------0------0-----|
A|----0-------0--------0------0---|   (x2)
E|2-------2--------2-------2------|
      F             Am
C              Cmaj7
Your love is my turning page
C             Cmaj7                  F  Am  F  Am
Where only the sweetest words are made
C                Em          Am
Every kiss is a cursive line
                G           F  Am  F  Am
Every touch is a redefined phrase

[Chorus]
(Same Pattern as the verse)
G|------2------2------0-------0-------0-------0------3-------3-|
D|--3------3-------0------0-------1-------1-------0------0-----|
A|----2------2-------0------0-------0-------0-------0------0---|   (x4)
E|0------0-------2-------2------2-------2-------0-------0------|
   G                Am           F                C

G  Am                 F
I surrender who I've been
           C   G
For who you are
       Am                F
Nothing makes me stronger than
            C     G
Your fragile heart
        Am               F
If I had only felt how it feels
     C
To be yours
                 G
Then I would have known
                     Am      F
What I've been living for all along
                     C
What I've been living for

G|-----3-----3-----2-----2-----2---|
D|---0-----0-----0-----0-----0---0-|
A|-0-----0-----0-----0-----0-------|   (x2)
E|---------------------------------|
   C     C   Cmaj7  Cmaj7   Cmaj7

G|-----0-----0-----0-----0-----0---|
D|---1-----1-----0-----0-----0---0-|
A|-0-----0-----0-----0-----0-------|   (x2)
E|---------------------------------|
   F     F    Am     Am      Am

[Bridge]
(The pattern is a little bit different here)
G|-----0-----0---------0-----0---------2-----2----------3-----2----|
D|---1-----1-----1---1-----1-----1---3-----3-----3----3-----3----3-|
A|-0-----0-----0---0-----0-----0---2-----2-----2----2-----2----2---|   (x4)
E|-----------------------------------------------------------------|
   F                                 G

F                     G
Though we're tethered
                    F
To the story we must tell
              G
When I saw you
                        F
Well I knew we'd tell it well
               G
With a whisper
                        F
We will tame the vicious scenes
               G
Like a feather

Bring the Kingdoms to their knees

G|-----3-----3-----2-----2-----2---|
D|---0-----0-----0-----0-----0---0-|
A|-0-----0-----0-----0-----0-------|   (x2)
E|---------------------------------|
   C     C   Cmaj7  Cmaj7   Cmaj7

G|-----0-----0-----0-----0-----0---|
D|---1-----1-----0-----0-----0---0-|
A|-0-----0-----0-----0-----0-------|   (x2)
E|---------------------------------|
   F     F    Am     Am      Am
Suggest correction
Creating personal tab
Creating personal tab
You can edit any tab online and save it as your Personal.

You can edit, replace or remove any tab part or add personal notes – all changes will be seen only by you.

Personal tabs can be accessed anytime from any device, even offline.
Learn more »
Give kudos to tab author, rate the tab!
1 2 3 4 5
comments
print report bad tab
guest
You may want to rate the tab now too:
select rating
Wanna post a correction for this tab? Suggest correction