Oops, an error
Loading. Please wait.

Nothing tab

25 views 1 this week
no commentswrite comment
1 2 3 4 5
3 more votes to show rating
add to favorites
×
Save as Personal and add changes to this tab that will be seen only by you. Learn more ›
×
You can save this tab as Personal to edit and correct it or add notes. All changes will be seen only by you. Learn more »
launch autoscroll
font size
0
reset
how to read this tab
guitar tuner
edit
Autoscroll
slow
fast
+/-
esc
set tempo
stop
Author
Difficulty
intermediate
[Intro]

   CM7
e|---------------------------------------------------------------------------|
B|---0----------------0---------------0----------------0---------------------|
G|---0----2-----------0----2----------0----2-----------0----2----------------|
D|---2----------------2---------------2----------------2---------------------|
A|---3----------------3---------------3----------------3---------------------|
E|---------------------------------------------------------------------------|

[let ring]


[Verse]

     CM7              FM7    Dm        CM       G6         CM7
e|---0----------------0------1---------0--------0----------0-----------------|
B|---0----------------1------3---------1-----3--0----------0-----------------|
G|---0----------------2------2---------0--------0----------0-----------------|
D|---2----------------3------0---------2--------0----------2-----------------|
A|---3----------------3----------------3--------2----------3-----------------|
E|----------------------------------------------3----------------------------|

     CM7              FM7    Dm        CM       G6         CM7
e|---0----------------0------1---------0--------0----------0-----------------|
B|---0----------------1------3---------1--1--3--0----------0-----------------|
G|---0----------------2------2---------0--------0----------0---2-------------|
D|---2----------------3------0---------2--------0----------2-----------------|
A|---3----------------3----------------3--------2----------3-----------------|
E|----------------------------------------------3----------------------------|


[Bridge]

     CM    CMm7    G#M                 GM                        GM  [Strum several times]
e|---0-----0-------4-------------------3-------3-----------------3-----------|
B|---1-----1-------4-------------------3---5-------5---3---------3-----------|
G|---0-----3-------5-------------------4-------------------------4-----------|
D|---2-----2-------6-------------------5-------------------------5-----------|
A|---3-----3-------6-------------------5-------------------------5-----------|
E|-----------------4-------------------3-------------------------3-----------|


[Chorus]

[Guitar 1]
     CM7               CM7                CM7                CM7
e|---0-----------------0------------------0------------------0---------------|
B|---0-----------------0------------------0------------------0---------------|
G|---0-----------------0------------------0------------------0---------------|
D|---2-----------------2------------------2------------------2---------------|
A|---3-----------------3------------------3------------------3---------------|
E|---------------------------------------------------------------------------|

[Guitar 2]

e|---------------------------------------------------------------------------|
B|---------------------------------------------------------------------------|
G|---4-----------------4------------------4------------------4---------------|
D|-----------7------------------7------------------7--------------7----------|
A|------------------7--------------------------------------------------------|
E|---------------------------------------------------------------------------|


[Guitar 1]
     CM7               CM7                FM7                Dm
e|---0-----------------0------------------0------------------1---------------|
B|---0-----------------0------------------1------------------3---------------|
G|---0-----------------0------------------2------------------2---------------|
D|---2-----------------2------------------3------------------0---------------|
A|---3-----------------3------------------3----------------------------------|
E|---------------------------------------------------------------------------|

[Guitar 2]

e|---------------------------------------------------------------------------|
B|-----------------------------------------5---------------------------------|
G|---4-------------------------------------------7-----5---------------------|
D|---------7-----5-------------------------------------------7---------------|
A|--------------------7------------------------------------------------------|
E|---------------------------------------------------------------------------|


[Guitar 1]
     CM                G6                 CM7                CM7
e|---0-----------------0------------------0------------------0---------------|
B|---1-----------------0------------------0------------------0---------------|
G|---0-----------------0------------------0------------------0---------------|
D|---2-----------------0------------------2------------------2---------------|
A|---3-----------------2------------------3------------------3---------------|
E|---------------------3-----------------------------------------------------|

[Guitar 2]

e|---------------------------------------------------------------------------|
B|---------------------------------------------------------------------------|
G|---5----------7------4------------------4------------------4---------------|
D|-----------------------------------------------7-----------------7---------|
A|--------------------------------------------------------7------------------|
E|---------------------------------------------------------------------------|


[Guitar 1]
     CM7               CM7                FM7                Dm
e|---0-----------------0------------------0------------------1---------------|
B|---0-----------------0------------------1------------------3---------------|
G|---0-----------------0------------------2------------------2---------------|
D|---2-----------------2------------------3------------------0---------------|
A|---3-----------------3------------------3----------------------------------|
E|---------------------------------------------------------------------------|

[Guitar 2]

e|---------------------------------------------------------------------------|
B|-----------------------------------------5------------/8---5---------------|
G|---4-------------------------------------------7---------------------------|
D|---------7-----5-----------------------------------------------------------|
A|--------------------7------------------------------------------------------|
E|---------------------------------------------------------------------------|


[Guitar 1]
     CM                G6                 CM7                CM7
e|---0-----------------0------------------0--------------0---0---------------|
B|---1-----------------0------------------0---0---1---3------0---------------|
G|---0-----------------0------------------0------------------0---------------|
D|---2-----------------0------------------2------------------2---------------|
A|---3-----------------2------------------3------------------3---------------|
E|---------------------3-----------------------------------------------------|

[Guitar 2]

e|---------------------5-------------------7-----------------7---------------|
B|---5-----------/8----------5------------------10-----------------10--------|
G|----------7-------------------------------------------9--------------------|
D|---------------------------------------------------------------------------|
A|---------------------------------------------------------------------------|
E|---------------------------------------------------------------------------|


[Verse]

     CM7     CM7      FM7    Dm        CM       G6         CM7
e|---0-------0--------0------1---------0--------0----------0-----------------|
B|---0-------0--------1------3---------1-----3--0----------0-----------------|
G|---0-------0--------2------2---------0--------0----------0-----------------|
D|---2-------2--------3------0---------2--------0----------2-----------------|
A|---3-------3--------3----------------3--------2----------3-----------------|
E|----------------------------------------------3----------------------------|

     CM7              FM7    Dm        CM       G6         CM7
e|---0----------------0------1---------0--------0----------0-----------------|
B|---0----------------1------3---------1--1--3--0----------0-----------------|
G|---0----------------2------2---------0--------0----------0---2-------------|
D|---2----------------3------0---------2--------0----------2-----------------|
A|---3----------------3----------------3--------2----------3-----------------|
E|----------------------------------------------3----------------------------|


[Outro]

     CM    CMm7    G#M                 GM                        
e|---0-----0-------4-------------------3-------3-----------------------------|
B|---1-----1-------4-------------------3---5-------5---3---------------------|
G|---0-----3-------5-------------------4-------------------------------------|
D|---2-----2-------6-------------------5-------------------------------------|
A|---3-----3-------6-------------------5-------------------------------------|
E|-----------------4-------------------3-------------------------------------|

                        
e|3------3-----------------------------|
B|----5-------5---3--------------------|
G|-------------------------------------|
D|-------------------------------------|
A|-------------------------------------|
E|-------------------------------------|



************************************
| /   Slide up
************************************

            
            
Suggest correction
Creating personal tab
Creating personal tab
You can edit any tab online and save it as your Personal.

You can edit, replace or remove any tab part or add personal notes – all changes will be seen only by you.

Personal tabs can be accessed anytime from any device, even offline.
Learn more »
Give kudos to tab author, rate the tab!
1 2 3 4 5
comments
print report bad tab
guest
You may want to rate the tab now too:
select rating
Wanna post a correction for this tab? Suggest correction