Oops, an error
Loading. Please wait.

Alone Tab

9,080 views 3 this week
no commentswrite comment
1 2 3 4 5
x 9
add to favorites
launch autoscroll
font size
0
reset
how to read this tab
guitar tuner
Autoscroll
slow
fast
+/-
esc
set tempo
stop
Help us to improve Ultimate-Guitar.com Take our survey!
×
Author
Difficulty
Tuning
intermediate
C# G# C# F# A# D#
Sleeping With Sirens-Alone 
Drop C# 
 
Intro                                                              x2
D#------------------------------------------------------------------| 
A#------------------------------------------------------------------| 
F#------------------------14141414-1514-1212121212121212------------| 
C#--55555555---88888888---xxxxxxxx-xxxx-xxxxxxxxxxxxxxxx------------| 
G#--55555555---88888888---12121212-1312-1010101010101010------------| 
C#--55555555---88888888---------------------------------------------| 
 
 
Verse                                 x4
D#------10---------------13------13------| 
A#---------11----13-10------11------11---| 
F#---12-------12-------12------12--------| 
C#---------------------------------------| 
G#---------------------------------------| 
C#---------------------------------------| 
  
 
Pre-Chorus 
D#-----------------------------------------------------------|
A#-----------------------------------------------------------| 
F#--------------------5~~~~----------------------5~~~~-------| 
C#--5~~~~-0~~~~-3~~~~-5~~~~----5~~~~-0~~~~-3~~~~-5~~~~-------| 
G#--5~~~~-0~~~~-3~~~~-3~~~~----5~~~~-0~~~~-3~~~~-3~~~~-------| 
C#--5~~~~-0~~~~-3~~~~----------5~~~~-0~~~~-3~~~~-------------| 
  

Chorus                                                             x2 
D#------------------------------------------------------------------| 
A#------------------------------------------------------------------| 
F#------------------------14141414-1514-1212121212121212------------| 
C#--55555555---88888888---xxxxxxxx-xxxx-xxxxxxxxxxxxxxxx------------| 
G#--55555555---88888888---12121212-1312-1010101010101010------------| 
C#--55555555---88888888---------------------------------------------| 
 
D#------------------------------------------------| 
A#------------------------------------------------|
F#-----------------------------------55555555-----| 
C#--55555555---00000000---33333333---55555555-----| 
G#--55555555---00000000---33333333---33333333-----| 
C#--55555555---00000000---33333333----------------| 
 
D#------------------------------------------------------------------| 
A#------------------------------------------------------------------| 
F#------------------------14141414-1514-1212121212121212------------| 
C#--55555555---88888888---xxxxxxxx-xxxx-xxxxxxxxxxxxxxxx------------| 
G#--55555555---88888888---12121212-1312-1010101010101010------------| 
C#--55555555---88888888---------------------------------------------|  
 
 
Verse 
 
Chorus 

Bridge(MGK)                            x4
D#---------------------------------------| 
A#---------------------------------------| 
F#---------------------------------------| 
C#--0~~~~~~-3~~~~~~-5~~~~~~-5~~~~~~------| 
G#--0~~~~~~-3~~~~~~-3~~~~~~-3~~~~~~------| 
C#--0~~~~~~-3~~~~~~-3~~~~~~-3~~~~~~------|  
  

Final chorus                                    x6 
D#------------------------------------------------| 
A#------------------------------------------------|
F#-----------------------------------55555555-----| 
C#--55555555---00000000---33333333---55555555-----| 
G#--55555555---00000000---33333333---33333333-----| 
C#--55555555---00000000---33333333----------------| 
  
 
Outro 
D#----------------------------------| 
A#----------------------------------| 
F#----------------------------------| 
C#--5~~~~-0~~~~-3~~~~-5~~~~~~~~~----| 
G#--5~~~~-0~~~~-3~~~~-3~~~~~~~~~----| 
C#--5~~~~-0~~~~-3~~~~-3~~~~~~~~~----| 
 

I hope this helps!!! 


Suggest correction
comments
print report bad tab
guest
You may want to rate the tab now too:
select rating
Wanna post a correction for this tab? Suggest correction