Oops, an error
Loading. Please wait.

Do It Now Remember It Later Tab

version 1
version 1

Whole song

Interactive

43,598 views 21 this week
1 commentread comment
1 2 3 4 5
x 5
add to favorites
launch autoscroll
font size
0
reset
how to read this tab
guitar tuner
×
Best way to learn
"Do It Now Remember It Later"
Autoscroll
slow
fast
+/-
esc
set tempo
stop
Author
Difficulty
Tuning
intermediate
C G C F A D
Tempo = 180

(Guitar 1)
D|-------|-------|----------------------------|-------|-------|-------|
A|-------|-------|----------------------------|-------|-------|-------|
F|-------|-------|----------------------------|-------|-------|-------|
C|--5L---|--5----|--3--1L----------------1L---|--1----|--5L---|--5----|
G|--5L---|--5----|--3--1L----------------1L---|--1----|--5L---|--5----|
C|--5L---|--5----|--3h-1L----------------1L---|--1----|--5L---|--5----|

D|----------------------------|----------------|----------------------------|
A|----------------------------|----------------|----------------------------|
F|----------------------------|----------------|-----15-15-15-15-15-15-15---|
C|--3h-1L----------------1L---|--1-------------|-----x--x--x--x--x--x--x----|
G|--3h-1L----------------1L---|--1-------------|-----13-13-13-13-13-13-13---|
C|--3h-1L----------------1L---|--1-------------|----------------------------|

D|----------------------------|----------------------------|
A|----------------------------|----------------------------|
F|-----17-17-17-17-17-17-17---|-----12----12----12h15h12---|
C|-----x--x--x--x--x--x--x----|-----x-----x-----x--x--x----|
G|-----15-15-15-15-15-15-15---|-----10----10----10h13h10---|
C|----------------------------|----------------------------|

D|----------------------------|----------------------------|
A|----------------------------|----------------------------|
F|-----12----12----12h15h12---|-----15-15-15-15-15-15-15---|
C|-----x-----x-----x--x--x----|-----x--x--x--x--x--x--x----|
G|-----10----10----10h13h10---|-----13-13-13-13-13-13-13---|
C|----------------------------|----------------------------|

D|----------------------------|----------------------------|
A|----------------------------|----------------------------|
F|-----17-17-17-17-17-17-17---|-----12----12----12h15h12---|
C|-----x--x--x--x--x--x--x----|-----x-----x-----x--x--x----|
G|-----15-15-15-15-15-15-15---|-----10----10----10h13h10---|
C|----------------------------|----------------------------|

D|----------------------------|----------------------------|
A|----------------------------|----------------------------|
F|-----12----12----12h15h12---|-----15-15-15-15-15-15-15---|
C|-----x-----x-----x--x--x----|-----x--x--x--x--x--x--x----|
G|-----10----10----10h13h10---|-----13-13-13-13-13-13-13---|
C|----------------------------|----------------------------|

D|----------------------------|----------------------------|
A|----------------------------|----------------------------|
F|-----17-17-17-17-17-17-17---|-----12----12----12h15h12---|
C|-----x--x--x--x--x--x--x----|-----x-----x-----x--x--x----|
G|-----15-15-15-15-15-15-15---|-----10----10----10h13h10---|
C|----------------------------|----------------------------|

D|----------------------------|----------------------------|
A|----------------------------|----------------------------|
F|-----12----12----12h15h12---|-----15-15-15-15-15-15-15---|
C|-----x-----x-----x--x--x----|-----x--x--x--x--x--x--x----|
G|-----10----10----10h13h10---|-----13-13-13-13-13-13-13---|
C|----------------------------|----------------------------|

D|----------------------------|----------------------------|
A|----------------------------|----------------------------|
F|-----17-17-17-17-17-17-17---|-----12----12----12h15h12---|
C|-----x--x--x--x--x--x--x----|-----x-----x-----x--x--x----|
G|-----15-15-15-15-15-15-15---|-----10----10----10h13h10---|
C|----------------------------|----------------------------|

D|----------------------------|-------|-------|-------|-------|----|----|----|
A|----------------------------|-------|-------|-------|-------|----|----|----|
F|-----12----12----12h15h12---|--12L--|--12L--|--12L--|--12---|----|----|----|
C|-----x-----x-----x--x--x----|--x----|--x----|--x----|--x----|----|----|----|
G|-----10----10----10h13h10---|--10L--|--10L--|--10L--|--10---|----|----|----|
C|----------------------------|-------|-------|-------|-------|----|----|----|

D|----|----------------------------|----------------------------|
A|----|--------11----11----11------|--10----10----10----10------|
F|----|-----12----12----12----12---|-----12----12----12----12---|
C|----|----------------------------|----------------------------|
G|----|----------------------------|----------------------------|
C|----|----------------------------|----------------------------|

D|----------------------------|
A|--11----11----11----11------|
F|-----12----12----12----12---|
C|----------------------------|
G|----------------------------|
C|----------------------------|

D|----------------------------------------------------|
A|--13----------13----------10h11h10------------------|
F|--------12----------12----------------10h---12------|
C|----------------------------------------------------|
G|----------------------------------------------------|
C|----------------------------------------------------|

D|----------------------------|----------------------------|
A|--------11----11----11------|--10----10----10----10------|
F|-----12----12----12----12---|-----12----12----12----12---|
C|----------------------------|----------------------------|
G|----------------------------|----------------------------|
C|----------------------------|----------------------------|

D|----------------------------|----------------------------|
A|--11----11----11----11------|--13----13----13------------|
F|-----12----12----12----12---|-----12----12---------------|
C|----------------------------|----------------------------|
G|----------------------------|----------------------------|
C|----------------------------|----------------------------|

D|----------------------------|-------|----------------------------|
A|----------------------------|-------|-----------11---------------|
F|--14s------15-------12L-----|--12---|--14----------------14------|
C|----------------------------|-------|----------------------------|
G|----------------------------|-------|----------------------------|
C|----------------------------|-------|----------------------------|

D|----------------|----------------------------|----------------------------|
A|--11------------|----------------------------|----------------------------|
F|--14------------|-----15-15-15-15-15-15-15---|-----17-17-17-17-17-17-17---|
C|----------------|-----x--x--x--x--x--x--x----|-----x--x--x--x--x--x--x----|
G|----------------|-----13-13-13-13-13-13-13---|-----15-15-15-15-15-15-15---|
C|----------------|----------------------------|----------------------------|

D|----------------------------|----------------------------|
A|----------------------------|----------------------------|
F|-----12----12----12h15h12---|-----12----12----12h15h12---|
C|-----x-----x-----x--x--x----|-----x-----x-----x--x--x----|
G|-----10----10----10h13h10---|-----10----10----10h13h10---|
C|----------------------------|----------------------------|

D|----------------------------|----------------------------|
A|----------------------------|----------------------------|
F|-----15-15-15-15-15-15-15---|-----17-17-17-17-17-17-17---|
C|-----x--x--x--x--x--x--x----|-----x--x--x--x--x--x--x----|
G|-----13-13-13-13-13-13-13---|-----15-15-15-15-15-15-15---|
C|----------------------------|----------------------------|

D|----------------------------|----------------------------|
A|----------------------------|----------------------------|
F|-----12----12----12h15h12---|-----12----12----12h15h12---|
C|-----x-----x-----x--x--x----|-----x-----x-----x--x--x----|
G|-----10----10----10h13h10---|-----10----10----10h13h10---|
C|----------------------------|----------------------------|

D|----------------------------|----------------------------|
A|----------------------------|----------------------------|
F|-----15-15-15-15-15-15-15---|--15h17-17-17-17-17-17-17L--|
C|-----x--x--x--x--x--x--x----|--x--x--x--x--x--x--x--x----|
G|-----13-13-13-13-13-13-13---|--13h15-15-15-15-15-15-15L--|
C|----------------------------|----------------------------|

D|----------------------------|----------------------------|
A|----------------------------|----------------------------|
F|--17-12-12-12-12-12-12-12---|--12h15-15-15-15h12-12-12L--|
C|--x--x--x--x--x--x--x--x----|--x--x--x--x--x--x--x--x----|
G|--15-10-10-10-10-10-10-10---|--10h13-13-13-13h10-10-10L--|
C|----------------------------|----------------------------|

D|----------------------------|----------------------------|
A|----------------------------|----------------------------|
F|--12-15-15-15-15-15-15-15---|--15h17-17-17-17-17-17-17L--|
C|--x--x--x--x--x--x--x--x----|--x--x--x--x--x--x--x--x----|
G|--10-13-13-13-13-13-13-13---|--13h15-15-15-15-15-15-15L--|
C|----------------------------|----------------------------|

D|----------------------------|----------------------------|-------|-------|
A|----------------------------|----------------------------|-------|-------|
F|--17-12-12-12-12-12-12-12---|--12h15-15-15-15h12-12-12---|--12L--|--12L--|
C|--x--x--x--x--x--x--x--x----|--x--x--x--x--x--x--x--x----|--x----|--x----|
G|--15-10-10-10-10-10-10-10---|--10h13-13-13-13h10-10-10---|--10L--|--10L--|
C|----------------------------|----------------------------|-------|-------|

D|-------|----------------------------|----------------------------|
A|-------|----------------------------|--------11----11----11------|
F|--12L--|--12L---------------12------|-----12----12----12----12---|
C|--x----|--x-----------------x-------|----------------------------|
G|--10L--|--10L---------------10------|----------------------------|
C|-------|----------------------------|----------------------------|

D|----------------------------|----------------------------|
A|--10----10----10----10------|--------11------------------|
F|-----12----12----12----12---|-----12----12-14h15-12h10---|
C|----------------------------|----------------------------|
G|----------------------------|----------------------------|
C|----------------------------|----------------------------|

D|----------------------------|----------------------------|
A|----------------------------|--------11----11----11------|
F|----------------------------|-----12----12----12----12---|
C|--12h10----------10-12-12---|----------------------------|
G|--------13h10-13------------|----------------------------|
C|----------------------------|----------------------------|

D|----------------------------|----------------------------|
A|--10----10----10----10------|--------11------------------|
F|-----12----12----12----12---|-----12----12-14h15-12h10---|
C|----------------------------|----------------------------|
G|----------------------------|----------------------------|
C|----------------------------|----------------------------|

D|----------------------------|----------------------------|
A|----------------------------|--------11----11----11------|
F|----------------------------|-----12----12----12----12---|
C|--12h10----------10-12-12---|----------------------------|
G|--------13h10-13------------|----------------------------|
C|----------------------------|----------------------------|

D|----------------------------|----------------------------|
A|--10----10----10----10------|--------11------------------|
F|-----12----12----12----12---|-----12----12-14h15-12h10---|
C|----------------------------|----------------------------|
G|----------------------------|----------------------------|
C|----------------------------|----------------------------|

D|----------------------------|----------------------------|
A|--11----11----11----11------|--------11----11----11------|
F|-----14----14----14----14---|-----12----12----12----12---|
C|----------------------------|----------------------------|
G|----------------------------|----------------------------|
C|----------------------------|----------------------------|

D|----------------------------|----------------------------|
A|--10----10----10----10------|--------11------------------|
F|-----12----12----12----12---|-----12----12-14h15-12h10---|
C|----------------------------|----------------------------|
G|----------------------------|----------------------------|
C|----------------------------|----------------------------|

D|----------------------------|----------------------------|-------|
A|--11----11----11----11------|----------------------------|-------|
F|-----14----14----14----14---|--14s------15-------12L-----|--12---|
C|----------------------------|----------------------------|-------|
G|----------------------------|----------------------------|-------|
C|----------------------------|----------------------------|-------|

D|----------------------------|----------------|----------------------------|
A|-----------11---------------|--11------------|----------------------------|
F|--14----------------14------|--14------------|-----15-15-15-15-15-15-15---|
C|----------------------------|----------------|-----x--x--x--x--x--x--x----|
G|----------------------------|----------------|-----13-13-13-13-13-13-13---|
C|----------------------------|----------------|----------------------------|

D|----------------------------|----------------------------|
A|----------------------------|----------------------------|
F|-----17-17-17-17-17-17-17---|-----12----12----12h15h12---|
C|-----x--x--x--x--x--x--x----|-----x-----x-----x--x--x----|
G|-----15-15-15-15-15-15-15---|-----10----10----10h13h10---|
C|----------------------------|----------------------------|

D|----------------------------|----------------------------|
A|----------------------------|----------------------------|
F|-----12----12----12h15h12---|-----15-15-15-15-15-15-15---|
C|-----x-----x-----x--x--x----|-----x--x--x--x--x--x--x----|
G|-----10----10----10h13h10---|-----13-13-13-13-13-13-13---|
C|----------------------------|----------------------------|

D|----------------------------|----------------------------|
A|----------------------------|----------------------------|
F|-----17-17-17-17-17-17-17---|-----12----12----12h15h12---|
C|-----x--x--x--x--x--x--x----|-----x-----x-----x--x--x----|
G|-----15-15-15-15-15-15-15---|-----10----10----10h13h10---|
C|----------------------------|----------------------------|

D|----------------------------|----------------------------|
A|----------------------------|----------------------------|
F|-----12----12----12h15h12---|-----15-15-15-15-15-15-15---|
C|-----x-----x-----x--x--x----|-----x--x--x--x--x--x--x----|
G|-----10----10----10h13h10---|-----13-13-13-13-13-13-13---|
C|----------------------------|----------------------------|

D|----------------------------|----------------------------|
A|----------------------------|----------------------------|
F|--15h17-17-17-17-17-17-17L--|--17-12-12-12-12-12-12-12---|
C|--x--x--x--x--x--x--x--x----|--x--x--x--x--x--x--x--x----|
G|--13h15-15-15-15-15-15-15L--|--15-10-10-10-10-10-10-10---|
C|----------------------------|----------------------------|

D|----------------------------|----------------------------|
A|----------------------------|----------------------------|
F|--12h15-15-15-15h12-12-12L--|--12-15-15-15-15-15-15-15---|
C|--x--x--x--x--x--x--x--x----|--x--x--x--x--x--x--x--x----|
G|--10h13-13-13-13h10-10-10L--|--10-13-13-13-13-13-13-13---|
C|----------------------------|----------------------------|

D|----------------------------|----------------------------|
A|----------------------------|----------------------------|
F|--15h17-17-17-17-17-17-17L--|--17-12-12-12-12-12-12-12---|
C|--x--x--x--x--x--x--x--x----|--x--x--x--x--x--x--x--x----|
G|--13h15-15-15-15-15-15-15L--|--15-10-10-10-10-10-10-10---|
C|----------------------------|----------------------------|

D|----------------------------|----------------------------|-------|
A|----------------------------|----------------------------|-------|
F|--12h15-15-15-15h12-12-12---|----------------------------|-------|
C|--x--x--x--x--x--x--x--x----|--5--------3--------1L------|--1----|
G|--10h13-13-13-13h10-10-10---|--5--------3--------1L------|--1----|
C|----------------------------|--5--------3--------1L------|--1----|

D|----------------------------|
A|----------------------------|
F|----------------------------|
C|--5--------3--------8L------|
G|--5--------3--------8L------|
C|--5--------3--------8L------|

D|----------------------------------------------------|
A|----------------------------------------------------|
F|----------------------------------------------------|
C|--8-----1M-1M-1-----1M-1M-1-------------------------|
G|--8-----1M-1M-1-----1M-1M-1-------------------------|
C|--8-----1M-1M-1-----1M-1M-1-------------------------|

D|----------------------------|----------------------------|
A|----------------------------|----------------------------|
F|----------------------------|----------------------------|
C|--------------------1-------|--1-------------------------|
G|--------------------1-------|--1-------------------------|
C|--------------------1-------|--1-------------------------|

D|----------------------------|
A|----------------------------|
F|----------------------------|
C|-----8-----------3----------|
G|-----8-----------3----------|
C|-----8-----------3----------|

D|----------------------------------------------------|
A|----------------------------------------------------|
F|----------------------------------------------------|
C|--1-----------1M-1M-1-----1M-1M-1-------------------|
G|--1-----------1M-1M-1-----1M-1M-1-------------------|
C|--1-----------1M-1M-1-----1M-1M-1-------------------|

D|----------------------------|----------------------------|----------------|
A|----------------------------|----------------------------|----------------|
F|----------------------------|----------------------------|----------------|
C|-----------------------1----|-----1----------------------|-----8-----3L---|
G|-----------------------1----|-----1----------------------|-----8-----3L---|
C|-----------------------1----|-----1----------------------|-----8-----3L---|

D|----------------------------------------------------|
A|----------------------------------------------------|
F|----------------------------------------------------|
C|--3-----1-----------1M-1M-1-----1M-1M-1-----0M------|
G|--3-----1-----------1M-1M-1-----1M-1M-1-----1M------|
C|--3-----1-----------1M-1M-1-----1M-1M-1-----0M------|

D|----------------------------|----------------------------|
A|----------------------------|----------------------------|
F|----------------------------|----------------------------|
C|--0M-0M-0M-0M-0M-0M-0M-1----|-----1-----0M-0M-0M-0M-0M---|
G|--1M-1M-1M-1M-1M-1M-1M-1----|-----1-----1M-1M-1M-1M-1M---|
C|--0M-0M-0M-0M-0M-0M-0M-1----|-----1-----0M-0M-0M-0M-0M---|

D|----------------------------|
A|----------------------------|
F|----------------------------|
C|--0M-0M-8-----------3L------|
G|--1M-1M-8-----------3L------|
C|--0M-0M-8-----------3L------|

D|----------------------------------------------------|
A|----------------------------------------------------|
F|----------------------------------------------------|
C|--3-----1-----------1M-1M-1-----1M-1M-1-----0M------|
G|--3-----1-----------1M-1M-1-----1M-1M-1-----1M------|
C|--3-----1-----------1M-1M-1-----1M-1M-1-----0M------|

D|----------------------------|----------------------------|
A|----------------------------|----------------------------|
F|----------------------------|----------------------------|
C|--0M-0M-0M-0M-0M-0M-0M-1----|-----1-----0M-0M-0M-0M-0M---|
G|--1M-1M-1M-1M-1M-1M-1M-1----|-----1-----1M-1M-1M-1M-1M---|
C|--0M-0M-0M-0M-0M-0M-0M-1----|-----1-----0M-0M-0M-0M-0M---|

D|----------------------------|----------------------------|-------|-------|
A|----------------------------|----------------------------|-------|-------|
F|----------------------------|----------------------------|-------|-------|
C|--0M-0M-8-----------3L------|--3--5L----------------5L---|--5L---|--5L---|
G|--1M-1M-8-----------3L------|--3--5L----------------5L---|--5L---|--5L---|
C|--0M-0M-8-----------3L------|--3--5L----------------5L---|--5L---|--5L---|

D|-------|-------|-------|----------------------------|
A|-------|-------|-------|----------------------------|
F|-------|-------|-------|----------------------------|
C|--5----|--1L---|--1----|--3--3----------------------|
G|--5----|--1L---|--1----|--3--3----------------------|
C|--5----|--1L---|--1----|--3--3----------------------|

D|----------------------------|----------------------------|
A|----------------------------|----------------------------|
F|----------------------------|-----15-15-15-15-15-15-15---|
C|--1--1--0M-3s----0M---------|--0M-x--x--x--x--x--x--x----|
G|--1--1--0M-3s----0M---------|--0M-13-13-13-13-13-13-13---|
C|--1--1--0M-3s----0M---------|--0M------------------------|

D|----------------------------|----------------------------|
A|----------------------------|----------------------------|
F|-----17-17-17-17-17-17-17---|-----12----12----12h15h12---|
C|-----x--x--x--x--x--x--x----|-----x-----x-----x--x--x----|
G|-----15-15-15-15-15-15-15---|-----10----10----10h13h10---|
C|----------------------------|----------------------------|

D|----------------------------|----------------------------|
A|----------------------------|----------------------------|
F|-----12----12----12h15h12---|-----15-15-15-15-15-15-15---|
C|-----x-----x-----x--x--x----|-----x--x--x--x--x--x--x----|
G|-----10----10----10h13h10---|-----13-13-13-13-13-13-13---|
C|----------------------------|----------------------------|

D|----------------------------|----------------------------|
A|----------------------------|----------------------------|
F|-----17-17-17-17-17-17-17---|-----12----12----12h15h12---|
C|-----x--x--x--x--x--x--x----|-----x-----x-----x--x--x----|
G|-----15-15-15-15-15-15-15---|-----10----10----10h13h10---|
C|----------------------------|----------------------------|

D|----------------------------|----------------------------|
A|----------------------------|----------------------------|
F|-----12----12----12h15h12---|-----15-15-15-15-15-15-15---|
C|-----x-----x-----x--x--x----|-----x--x--x--x--x--x--x----|
G|-----10----10----10h13h10---|-----13-13-13-13-13-13-13---|
C|----------------------------|----------------------------|

D|----------------------------|----------------------------|
A|----------------------------|----------------------------|
F|--15h17-17-17-17-17-17-17L--|--17-12-12-12-12-12-12-12---|
C|--x--x--x--x--x--x--x--x----|--x--x--x--x--x--x--x--x----|
G|--13h15-15-15-15-15-15-15L--|--15-10-10-10-10-10-10-10---|
C|----------------------------|----------------------------|

D|----------------------------|----------------------------|
A|----------------------------|----------------------------|
F|--12h15-15-15-15h12-12-12L--|--12-15-15-15-15-15-15-15---|
C|--x--x--x--x--x--x--x--x----|--x--x--x--x--x--x--x--x----|
G|--10h13-13-13-13h10-10-10L--|--10-13-13-13-13-13-13-13---|
C|----------------------------|----------------------------|

D|----------------------------|----------------------------|
A|----------------------------|----------------------------|
F|--15h17-17-17-17-17-17-17L--|--17-12-12-12-12-12-12-12---|
C|--x--x--x--x--x--x--x--x----|--x--x--x--x--x--x--x--x----|
G|--13h15-15-15-15-15-15-15L--|--15-10-10-10-10-10-10-10---|
C|----------------------------|----------------------------|

D|----------------------------|-------|-------|-------|-------|
A|----------------------------|-------|-------|-------|-------|
F|--12h15-15-15-15h12-12-12---|--12L--|--12L--|--12L--|--12---|
C|--x--x--x--x--x--x--x--x----|--x----|--x----|--x----|--x----|
G|--10h13-13-13-13h10-10-10---|--10L--|--10L--|--10L--|--10---|
C|----------------------------|-------|-------|-------|-------|

(Guitar 2)
D|----|----|----|----|----|----|----|----------------|
A|----|----|----|----|----|----|----|----------------|
F|----|----|----|----|----|----|----|----------------|
C|----|----|----|----|----|----|----|-----------0M---|
G|----|----|----|----|----|----|----|-----------0----|
C|----|----|----|----|----|----|----|-----------0----|

D|----------------------------|----------------------------|
A|----------------------------|----------------------------|
F|-----15-15-15-14-14-15-10L--|--10-10-15-15-14-14-15-15---|
C|-----x--x--x--x--x--x--x----|--x--x--x--x--x--x--x--x----|
G|-----13-13-13-12-12-13-8L---|--8--8--13-13-12-12-13-13---|
C|----------------------------|----------------------------|

D|----------------------------|----------------------------|
A|----------------------------|----------------------------|
F|-----15-15-15-14-14-15-10L--|--10-10-15-15-14-14-15-15---|
C|-----x--x--x--x--x--x--x----|--x--x--x--x--x--x--x--x----|
G|-----13-13-13-12-12-13-8L---|--8--8--13-13-12-12-13-13---|
C|----------------------------|----------------------------|

D|----------------------------|----------------------------|
A|----------------------------|----------------------------|
F|-----15-15-15-14-14-15-10L--|--10-10-15-15-14-14-15-15---|
C|-----x--x--x--x--x--x--x----|--x--x--x--x--x--x--x--x----|
G|-----13-13-13-12-12-13-8L---|--8--8--13-13-12-12-13-13---|
C|----------------------------|----------------------------|

D|----------------------------|----------------------------|
A|----------------------------|----------------------------|
F|-----15-15-15-14-14-15-10L--|--10-10-15-15-14-14-15-15---|
C|-----x--x--x--x--x--x--x----|--x--x--x--x--x--x--x--x----|
G|-----13-13-13-12-12-13-8L---|--8--8--13-13-12-12-13-13---|
C|----------------------------|----------------------------|

D|----------------------------|----------------------------|
A|----------------------------|----------------------------|
F|-----15-15-15-14-14-15-10L--|--10-10-15-15-14-14-15-15---|
C|-----x--x--x--x--x--x--x----|--x--x--x--x--x--x--x--x----|
G|-----13-13-13-12-12-13-8L---|--8--8--13-13-12-12-13-13---|
C|----------------------------|----------------------------|

D|----------------------------|----------------------------|
A|----------------------------|----------------------------|
F|-----15-15-15-14-14-15-10L--|--10-10-15-15-14-14-15-15---|
C|-----x--x--x--x--x--x--x----|--x--x--x--x--x--x--x--x----|
G|-----13-13-13-12-12-13-8L---|--8--8--13-13-12-12-13-13---|
C|----------------------------|----------------------------|

D|----------------------------|----------------------------|
A|----------------------------|----------------------------|
F|-----15-15-15-14-14-15-10L--|--10-10-15-15-14-14-15-15---|
C|-----x--x--x--x--x--x--x----|--x--x--x--x--x--x--x--x----|
G|-----13-13-13-12-12-13-8L---|--8--8--13-13-12-12-13-13---|
C|----------------------------|----------------------------|

D|----------------------------|----------------------------|-------|-------|
A|----------------------------|----------------------------|-------|-------|
F|-----15-15-15-14-14-15-10L--|--10-10-15-15-14-14-15-15---|--15L--|--15L--|
C|-----x--x--x--x--x--x--x----|--x--x--x--x--x--x--x--x----|--x----|--x----|
G|-----13-13-13-12-12-13-8L---|--8--8--13-13-12-12-13-13---|--13L--|--13L--|
C|----------------------------|----------------------------|-------|-------|

D|-------|-------|----|----|----|-------|----|----|----|----|----|----|----|----|
A|-------|-------|----|----|----|-------|----|----|----|----|----|----|----|----|
F|--15L--|--15---|----|----|----|-------|----|----|----|----|----|----|----|----|
C|--x----|--x----|----|----|----|-------|----|----|----|----|----|----|----|----|
G|--13L--|--13---|----|----|----|-------|----|----|----|----|----|----|----|----|
C|-------|-------|----|----|----|-------|----|----|----|----|----|----|----|----|

D|----------------------------|-------|----------------------------|
A|----------------------------|-------|----------------------------|
F|----------------------------|-------|----------------------------|
C|--5--------3--------1L------|--1----|--5--------3--------8L------|
G|--5--------3--------1L------|--1----|--5--------3--------8L------|
C|--5--------3--------1L------|--1----|--5--------3--------8L------|

D|----------------------------------------------------|
A|----------------------------------------------------|
F|----------------------------------------------------|
C|--8-----1M-1M-1M----1M----1-------------------------|
G|--8-----1M-1M-1M----1M----1-------------------------|
C|--8-----1M-1M-1M----1M----1-------------------------|

D|----------------------------|----------------------------|
A|----------------------------|----------------------------|
F|-----15-15-15-15-15-15-15---|-----15-15-15-15-15-15-15---|
C|-----x--x--x--x--x--x--x----|-----x--x--x--x--x--x--x----|
G|-----13-13-13-13-13-13-13---|-----13-13-13-13-13-13-13---|
C|----------------------------|----------------------------|

D|----------------------------|----------------------------|
A|----------------------------|----------------------------|
F|-----19-19-19-19-19-19-19---|-----14-14-14-14-14-14-14---|
C|-----x--x--x--x--x--x--x----|-----x--x--x--x--x--x--x----|
G|-----17-17-17-17-17-17-17---|-----12-12-12-12-12-12-12---|
C|----------------------------|----------------------------|

D|----------------------------|----------------------------|
A|----------------------------|----------------------------|
F|-----15-15-15-15-15-15-15---|-----15-15-15-15-15-15-15---|
C|-----x--x--x--x--x--x--x----|-----x--x--x--x--x--x--x----|
G|-----13-13-13-13-13-13-13---|-----13-13-13-13-13-13-13---|
C|----------------------------|----------------------------|

D|----------------------------|----------------------------|
A|----------------------------|----------------------------|
F|-----19-19-19-19-19-19-19---|-----14-14-14-14-14-14-14---|
C|-----x--x--x--x--x--x--x----|-----x--x--x--x--x--x--x----|
G|-----17-17-17-17-17-17-17---|-----12-12-12-12-12-12-12---|
C|----------------------------|----------------------------|

D|----------------------------|----------------------------|
A|----------------------------|----------------------------|
F|-----15-15-15-15-15-15-15---|--15-15-15-15-15-15-15-15---|
C|-----x--x--x--x--x--x--x----|--x--x--x--x--x--x--x--x----|
G|-----13-13-13-13-13-13-13---|--13-13-13-13-13-13-13-13---|
C|----------------------------|----------------------------|

D|----------------------------|----------------------------|
A|----------------------------|----------------------------|
F|--19-19-19-19-19-19-19-19---|--14-14-14-14-14-14-14-14L--|
C|--x--x--x--x--x--x--x--x----|--x--x--x--x--x--x--x--x----|
G|--17-17-17-17-17-17-17-17---|--12-12-12-12-12-12-12-12L--|
C|----------------------------|----------------------------|

D|----------------------------|----------------------------|
A|----------------------------|----------------------------|
F|--14-15-15-15-15-15-15-15---|--15-15-15-15-15-15-15-15---|
C|--x--x--x--x--x--x--x--x----|--x--x--x--x--x--x--x--x----|
G|--12-13-13-13-13-13-13-13---|--13-13-13-13-13-13-13-13---|
C|----------------------------|----------------------------|

D|----------------------------|----------------------------|-------|-------|
A|----------------------------|----------------------------|-------|-------|
F|--19-19-19-19-19-19-19-19---|--14-14-14-14-14-14-14-14---|--15L--|--15L--|
C|--x--x--x--x--x--x--x--x----|--x--x--x--x--x--x--x--x----|--x----|--x----|
G|--17-17-17-17-17-17-17-17---|--12-12-12-12-12-12-12-12---|--13L--|--13L--|
C|----------------------------|----------------------------|-------|-------|

D|-------|----------------------------|----------------------------|
A|-------|----------------------------|----------------------------|
F|--15L--|--15L---------------15------|----------------------------|
C|--x----|--x-----------------x--0----|-----5M-5M-5M-5M-5M-5M-5M---|
G|--13L--|--13L---------------13-0----|-----5M-5M-5M-5M-5M-5M-5M---|
C|-------|-----------------------0----|-----5M-5M-5M-5M-5M-5M-5M---|

D|----------------------------|----------------------------|
A|----------------------------|----------------------------|
F|----------------------------|----------------------------|
C|--5M-5M-5M-5M-5M-5M-5M-5M---|--5M-8M-8M-8M-8M-8M-8M-8M---|
G|--5M-5M-5M-5M-5M-5M-5M-5M---|--5M-8M-8M-8M-8M-8M-8M-8M---|
C|--5M-5M-5M-5M-5M-5M-5M-5M---|--5M-8M-8M-8M-8M-8M-8M-8M---|

D|----------------------------|----------------------------|
A|----------------------------|----------------------------|
F|----------------------------|----------------------------|
C|--8M-3M-3M-3M-3M-3M-3M-0----|-----5M-5M-5M-5M-5M-5M-5M---|
G|--8M-3M-3M-3M-3M-3M-3M-0----|-----5M-5M-5M-5M-5M-5M-5M---|
C|--8M-3M-3M-3M-3M-3M-3M-0----|-----5M-5M-5M-5M-5M-5M-5M---|

D|----------------------------|----------------------------|
A|----------------------------|----------------------------|
F|----------------------------|----------------------------|
C|--5M-5M-5M-5M-5M-5M-5M-5M---|--5M-8M-8M-8M-8M-8M-8M-8M---|
G|--5M-5M-5M-5M-5M-5M-5M-5M---|--5M-8M-8M-8M-8M-8M-8M-8M---|
C|--5M-5M-5M-5M-5M-5M-5M-5M---|--5M-8M-8M-8M-8M-8M-8M-8M---|

D|----------------------------|----------------------------|
A|----------------------------|----------------------------|
F|----------------------------|----------------------------|
C|--8M-3M-3M-3M-3M-3M-3M-0----|-----5M-5--5--5M-5M-5--5----|
G|--8M-3M-3M-3M-3M-3M-3M-0----|-----5M-5--5--5M-5M-5--5----|
C|--8M-3M-3M-3M-3M-3M-3M-0----|-----5M-5--5--5M-5M-5--5----|

D|----------------------------|----------------------------|
A|----------------------------|----------------------------|
F|----------------------------|----------------------------|
C|--5M-5M-5--5--5M-5M-5--5----|--8M-8M-8--8--8M-8M-8--8----|
G|--5M-5M-5--5--5M-5M-5--5----|--8M-8M-8--8--8M-8M-8--8----|
C|--5M-5M-5--5--5M-5M-5--5----|--8M-8M-8--8--8M-8M-8--8----|

D|----------------------------|----------------------------|
A|----------------------------|----------------------------|
F|----------------------------|----------------------------|
C|--3M-3M-3--3--3M-3M-3M-3----|-----5M-5--5--5M-5M-5--5----|
G|--3M-3M-3--3--3M-3M-3M-3----|-----5M-5--5--5M-5M-5--5----|
C|--3M-3M-3--3--3M-3M-3M-3----|-----5M-5--5--5M-5M-5--5----|

D|----------------------------|----------------------------|
A|----------------------------|----------------------------|
F|----------------------------|----------------------------|
C|--5M-5M-5--5--5M-5M-5--5----|--8M-8M-8--8--8M-8M-8--8----|
G|--5M-5M-5--5--5M-5M-5--5----|--8M-8M-8--8--8M-8M-8--8----|
C|--5M-5M-5--5--5M-5M-5--5----|--8M-8M-8--8--8M-8M-8--8----|

D|----------------------------|----------------------------|-------|
A|----------------------------|----------------------------|-------|
F|----------------------------|----------------------------|-------|
C|--3M-3M-3--3--3M-3M-3--3----|--5--------3--------1L------|--1----|
G|--3M-3M-3--3--3M-3M-3--3----|--5--------3--------1L------|--1----|
C|--3M-3M-3--3--3M-3M-3--3----|--5--------3--------1L------|--1----|

D|----------------------------|
A|----------------------------|
F|----------------------------|
C|--5--------3--------8L------|
G|--5--------3--------8L------|
C|--5--------3--------8L------|

D|----------------------------------------------------|
A|----------------------------------------------------|
F|----------------------------------------------------|
C|--8-----1M-1M-1M----1M----1-------------------------|
G|--8-----1M-1M-1M----1M----1-------------------------|
C|--8-----1M-1M-1M----1M----1-------------------------|

D|----------------------------|----------------------------|
A|----------------------------|----------------------------|
F|-----15-15-15-15-15-15-15---|-----15-15-15-15-15-15-15---|
C|-----x--x--x--x--x--x--x----|-----x--x--x--x--x--x--x----|
G|-----13-13-13-13-13-13-13---|-----13-13-13-13-13-13-13---|
C|----------------------------|----------------------------|

D|----------------------------|----------------------------|
A|----------------------------|----------------------------|
F|-----19-19-19-19-19-19-19---|-----14-14-14-14-14-14-14---|
C|-----x--x--x--x--x--x--x----|-----x--x--x--x--x--x--x----|
G|-----17-17-17-17-17-17-17---|-----12-12-12-12-12-12-12---|
C|----------------------------|----------------------------|

D|----------------------------|----------------------------|
A|----------------------------|----------------------------|
F|-----15-15-15-15-15-15-15---|-----15-15-15-15-15-15-15---|
C|-----x--x--x--x--x--x--x----|-----x--x--x--x--x--x--x----|
G|-----13-13-13-13-13-13-13---|-----13-13-13-13-13-13-13---|
C|----------------------------|----------------------------|

D|----------------------------|----------------------------|
A|----------------------------|----------------------------|
F|-----19-19-19-19-19-19-19---|-----14-14-14-14-14-14-14---|
C|-----x--x--x--x--x--x--x----|-----x--x--x--x--x--x--x----|
G|-----17-17-17-17-17-17-17---|-----12-12-12-12-12-12-12---|
C|----------------------------|----------------------------|

D|----------------------------|----------------------------|
A|----------------------------|----------------------------|
F|-----15-15-15-15-15-15-15---|--15-15-15-15-15-15-15-15---|
C|-----x--x--x--x--x--x--x----|--x--x--x--x--x--x--x--x----|
G|-----13-13-13-13-13-13-13---|--13-13-13-13-13-13-13-13---|
C|----------------------------|----------------------------|

D|----------------------------|----------------------------|
A|----------------------------|----------------------------|
F|--19-19-19-19-19-19-19-19---|--14-14-14-14-14-14-14-14L--|
C|--x--x--x--x--x--x--x--x----|--x--x--x--x--x--x--x--x----|
G|--17-17-17-17-17-17-17-17---|--12-12-12-12-12-12-12-12L--|
C|----------------------------|----------------------------|

D|----------------------------|----------------------------|
A|----------------------------|----------------------------|
F|--14-15-15-15-15-15-15-15---|--15-15-15-15-15-15-15-15---|
C|--x--x--x--x--x--x--x--x----|--x--x--x--x--x--x--x--x----|
G|--12-13-13-13-13-13-13-13---|--13-13-13-13-13-13-13-13---|
C|----------------------------|----------------------------|

D|----------------------------|----------------------------|
A|----------------------------|----------------------------|
F|--19-19-19-19-19-19-19-19---|--14-14-14-14-14-14-14-14---|
C|--x--x--x--x--x--x--x--x----|--x--x--x--x--x--x--x--x----|
G|--17-17-17-17-17-17-17-17---|--12-12-12-12-12-12-12-12---|
C|----------------------------|----------------------------|

D|----------------------------|-------|----------------------------|
A|----------------------------|-------|----------------------------|
F|----------------------------|-------|----------------------------|
C|--5--------3--------1L------|--1----|--5--------3--------8L------|
G|--5--------3--------1L------|--1----|--5--------3--------8L------|
C|--5--------3--------1L------|--1----|--5--------3--------8L------|

D|----------------------------------------------------|
A|----------------------------------------------------|
F|----------------------------------------------------|
C|--8-----1M-1M-1-----1M-1M-1-------------------------|
G|--8-----1M-1M-1-----1M-1M-1-------------------------|
C|--8-----1M-1M-1-----1M-1M-1-------------------------|

D|----------------------------|----------------------------|
A|----------------------------|----------------------------|
F|----------------------------|----------------------------|
C|--------------------1-------|--1-------------------------|
G|--------------------1-------|--1-------------------------|
C|--------------------1-------|--1-------------------------|

D|----------------------------|
A|----------------------------|
F|----------------------------|
C|-----8-----------3----------|
G|-----8-----------3----------|
C|-----8-----------3----------|

D|----------------------------------------------------|
A|----------------------------------------------------|
F|----------------------------------------------------|
C|--1-----------1M-1M-1-----1M-1M-1-------------------|
G|--1-----------1M-1M-1-----1M-1M-1-------------------|
C|--1-----------1M-1M-1-----1M-1M-1-------------------|

D|----------------------------|----------------------------|----------------|
A|----------------------------|----------------------------|----------------|
F|----------------------------|----------------------------|----------------|
C|-----------------------1----|-----1----------------------|-----8-----3L---|
G|-----------------------1----|-----1----------------------|-----8-----3L---|
C|-----------------------1----|-----1----------------------|-----8-----3L---|

D|----------------------------------------------------|
A|----------------------------------------------------|
F|----------------------------------------------------|
C|--3-----1-----------1M-1M-1-----1M-1M-1-----0M------|
G|--3-----1-----------1M-1M-1-----1M-1M-1-----1M------|
C|--3-----1-----------1M-1M-1-----1M-1M-1-----0M------|

D|----------------------------|----------------------------|
A|----------------------------|----------------------------|
F|----------------------------|----------------------------|
C|--0M-0M-0M-0M-0M-0M-0M-1----|-----1-----0M-0M-0M-0M-0M---|
G|--1M-1M-1M-1M-1M-1M-1M-1----|-----1-----1M-1M-1M-1M-1M---|
C|--0M-0M-0M-0M-0M-0M-0M-1----|-----1-----0M-0M-0M-0M-0M---|

D|----------------------------|
A|----------------------------|
F|----------------------------|
C|--0M-0M-8-----------3L------|
G|--1M-1M-8-----------3L------|
C|--0M-0M-8-----------3L------|

D|----------------------------------------------------|
A|----------------------------------------------------|
F|----------------------------------------------------|
C|--3-----1-----------1M-1M-1-----1M-1M-1-----0M------|
G|--3-----1-----------1M-1M-1-----1M-1M-1-----1M------|
C|--3-----1-----------1M-1M-1-----1M-1M-1-----0M------|

D|----------------------------|----------------------------|
A|----------------------------|----------------------------|
F|----------------------------|----------------------------|
C|--0M-0M-0M-0M-0M-0M-0M-1----|-----1-----0M-0M-0M-0M-0M---|
G|--1M-1M-1M-1M-1M-1M-1M-1----|-----1-----1M-1M-1M-1M-1M---|
C|--0M-0M-0M-0M-0M-0M-0M-1----|-----1-----0M-0M-0M-0M-0M---|

D|----------------------------|----------------------------|-------|-------|
A|----------------------------|----------------------------|-------|-------|
F|----------------------------|----------------------------|-------|-------|
C|--0M-0M-8-----------3L------|--3--5L----------------5L---|--5L---|--5L---|
G|--1M-1M-8-----------3L------|--3--5L----------------5L---|--5L---|--5L---|
C|--0M-0M-8-----------3L------|--3--5L----------------5L---|--5L---|--5L---|

D|-------|-------|-------|-------|-------|----------------------------|
A|-------|-------|-------|-------|-------|----------------------------|
F|-------|-------|-------|-------|-------|-----15-15-15-15-15-15-15---|
C|--5----|--1L---|--1----|-------|-------|-----x--x--x--x--x--x--x----|
G|--5----|--1L---|--1----|-------|-------|-----13-13-13-13-13-13-13---|
C|--5----|--1L---|--1----|-------|-------|----------------------------|

D|----------------------------|----------------------------|
A|----------------------------|----------------------------|
F|-----15-15-15-15-15-15-15---|-----19-19-19-19-19-19-19---|
C|-----x--x--x--x--x--x--x----|-----x--x--x--x--x--x--x----|
G|-----13-13-13-13-13-13-13---|-----17-17-17-17-17-17-17---|
C|----------------------------|----------------------------|

D|----------------------------|----------------------------|
A|----------------------------|----------------------------|
F|-----14-14-14-14-14-14-14---|-----15-15-15-15-15-15-15---|
C|-----x--x--x--x--x--x--x----|-----x--x--x--x--x--x--x----|
G|-----12-12-12-12-12-12-12---|-----13-13-13-13-13-13-13---|
C|----------------------------|----------------------------|

D|----------------------------|----------------------------|
A|----------------------------|----------------------------|
F|-----15-15-15-15-15-15-15---|-----19-19-19-19-19-19-19---|
C|-----x--x--x--x--x--x--x----|-----x--x--x--x--x--x--x----|
G|-----13-13-13-13-13-13-13---|-----17-17-17-17-17-17-17---|
C|----------------------------|----------------------------|

D|----------------------------|----------------------------|
A|----------------------------|----------------------------|
F|-----14-14-14-14-14-14-14---|-----15-15-15-15-15-15-15---|
C|-----x--x--x--x--x--x--x----|-----x--x--x--x--x--x--x----|
G|-----12-12-12-12-12-12-12---|-----13-13-13-13-13-13-13---|
C|----------------------------|----------------------------|

D|----------------------------|----------------------------|
A|----------------------------|----------------------------|
F|--15-15-15-15-15-15-15-15---|--19-19-19-19-19-19-19-19---|
C|--x--x--x--x--x--x--x--x----|--x--x--x--x--x--x--x--x----|
G|--13-13-13-13-13-13-13-13---|--17-17-17-17-17-17-17-17---|
C|----------------------------|----------------------------|

D|----------------------------|----------------------------|
A|----------------------------|----------------------------|
F|--14-14-14-14-14-14-14-14L--|--14-15-15-15-15-15-15-15---|
C|--x--x--x--x--x--x--x--x----|--x--x--x--x--x--x--x--x----|
G|--12-12-12-12-12-12-12-12L--|--12-13-13-13-13-13-13-13---|
C|----------------------------|----------------------------|

D|----------------------------|----------------------------|
A|----------------------------|----------------------------|
F|--15-15-15-15-15-15-15-15---|--19-19-19-19-19-19-19-19---|
C|--x--x--x--x--x--x--x--x----|--x--x--x--x--x--x--x--x----|
G|--13-13-13-13-13-13-13-13---|--17-17-17-17-17-17-17-17---|
C|----------------------------|----------------------------|

D|----------------------------|-------|-------|-------|-------|
A|----------------------------|-------|-------|-------|-------|
F|--14-14-14-14-14-14-14-14---|--15L--|--15L--|--15L--|--15---|
C|--x--x--x--x--x--x--x--x----|--x----|--x----|--x----|--x----|
G|--12-12-12-12-12-12-12-12---|--13L--|--13L--|--13L--|--13---|
C|----------------------------|-------|-------|-------|-------|


************************************

| h  Hammer-on
| x  Dead note

************************************
Suggest correction
comments
print report bad tab
1 comment total.
0 reply
monsterenergy17 41 Jun 14, 2016 12:49 PM

Could it be possible to put the times of each section or to tell us the verse and chorus and breakdowns? It'd just be way easier to follow

guest
You may want to rate the tab now too:
select rating
Wanna post a correction for this tab? Suggest correction