Oops, an error
Loading. Please wait.

Go Go Go tab

547 views 27 this week
no commentswrite comment
1 2 3 4 5
2 more votes to show rating
add to favorites
×
Save as Personal and add changes to this tab that will be seen only by you. Learn more ›
×
You can save this tab as Personal to edit and correct it or add notes. All changes will be seen only by you. Learn more »
launch autoscroll
font size
0
reset
how to read this tab
guitar tuner
edit
Autoscroll
slow
fast
+/-
esc
set tempo
stop
Author
Difficulty
About this tab version
This is a full tab of Sleeping With Sirens' "Go Go Go" with details and explanation of each part. Was this info helpful? Yes No
Here's My Full Tab For 'Go Go Go' off of Sleeping With Siren's 2015 Album 'Madness'

The guitar parts written are flexible, and as SWS only have two guitarists, the parts that are played live
often change (Often times with the bass filling in Guitar 1's Part) Just play what is most fun to you.

[Intro Riff] (Guitar 1):
E|--9\5--5--5--5--4--4--5--5--5--5--5--5--7--9--|
B|--9\5--5--5--5--5--5--5--5--5--5--5--5--7--9--|
G|----------------------------------------------|
D|----------------------------------------------|
A|----------------------------------------------|
E|----------------------------------------------|

[Intro Rhythm] (Guitar 2):
(Just play this chord repeatedly)
E|--------------------|
B|--------------------|
G|--------------------|
D|--7--7--7-----7--7--|
A|--x--x--x-----x--x--|
E|--5--5--5-----5--5--|

[Verse Rhythm] (Guitar 2 - Clean):
"We Always Seem To Find A Way To..."
E|-------------------------|-----------------------------------|
B|-------------------------|-----------------------------------|
G|-------------------------|-----------------------------------|
D|--11\7--7--7-----7/9/11--|--11\7--7--7-----6--6--6--9--9--9--|
A|--x--x--x--x-----x-x-x---|---x-x--x--x-----x--x--x--x--x--x--|
E|--9-\5--5--5-----5/7/9---|---9\5--5--5-----4--4--4--7--7--7--|

[PreChorus Rhythm] (Guitar 1):
"They Say It's Time To Grow Up..."
E|--------------------------------|--------------------------------|
B|--------------------------------|--------------------------------|
G|--------7--7--7-----------------|--------7--7--7-----------------|
D|--7--7--7--7--7--4--4--2--2--2--|--7--7--7--7--7--4--4--2--2--2--|
A|--7--7--5--5--5--4--4--2--2--2--|--7--7--5--5--5--4--4--2--2--2--|
E|--5--5-----------2--2--0--0--0--|--5--5-----------2--2--0--0--0--|

[PreChorus Rhythm Harmony] (Guitar 2):
"They Say It's Time To Grow Up..."
E|-----------------------------------|
B|-----------------------------------|
G|--------11--11--11--6--6--4--4--4--|
D|--7--7--x---x---x---x--x--x--x--x--|
A|--x--x--9---9---9---4--4--2--2--2--|
E|--5--5-----------------------------|

[PreChorus Riff] (Guitar 3):
"They Say It's..."
E|--9----------9----------10----------10----------10------10------|
B|-----10--10-----10--10------10--10------10--10------10------10--|
G|----------------------------------------------------------------|
D|----------------------------------------------------------------|
A|----------------------------------------------------------------|
E|----------------------------------------------------------------|

[PreChorus Riff] [Continued] (Guitar 3):
"Time To Grow Up And Stop..."
E|--9----------9----------7----------7----------7-----------------|
B|----10--10-----10--10-----10--10-----10--10-----10--10--10------|
G|----------------------------------------------------------------|
D|----------------------------------------------------------------|
A|----------------------------------------------------------------|
E|----------------------------------------------------------------|

[Chorus Rhythm] (Guitar 1):
"She Says "Go Go Go" I Don't Wanna..."
E|--------------------------------|--------------------------------|
B|--------------------------------|--------------------------------|
G|--6--6--7--7--7-----------------|--6--6--7--7--7-----------------|
D|--7--7--7--7--7--2--2--4--4--4--|--7--7--7--7--7--4--4--2--2--2--|
A|--4--4--5--5--5--2--2--4--4--4--|--4--4--5--5--5--4--4--2--2--2--|
E|-----------------0--0--2--2--2--|-----------------2--2--0--0--0--|

[Chorus Rhythm Harmony](Guitar 2):
"She Says "Go Go Go" I Don't Wanna..."
E|-----------------------------------|--------------------------------|
B|-----------------------------------|--------------------------------|
G|--6--6--7--7--7--9--9--11--11--11--|--6--6--7--7--7--6--6--4--4--4--|
D|--x--x--x--x--x--x--x--x---x---x---|--x--x--x--x--x--x--x--x--x--x--|
A|--4--4--5--5--5--7--7--9---9---9---|--4--4--5--5--5--4--4--2--2--2--|
E|-----------------------------------|--------------------------------|

[Chorus Leads] (Guitar 3):
"She Says "Go Go Go" I Don't Wanna..."
E|--12--12--12--12--12--12--10--10--10--10--10--10--10--10--10--10--|--9---9---9---9---9---9---7---7---|
B|--10--10--10--10--10--10--10--10--10--10--10--10--10--10--10--10--|--10--10--10--10--10--10--10--10--|
G|------------------------------------------------------------------|----------------------------------|
D|------------------------------------------------------------------|----------------------------------|
A|------------------------------------------------------------------|----------------------------------|
E|------------------------------------------------------------------|----------------------------------|

[Chorus Leads] [Continued] (Guitar 3):
"Take It Slow, There's Plenty Of Time..."
E|--7---7---7---7---7---7---|--9---9------10--10--10-----9---9------7---7---7---|
B|--10--10--10--10--10--10--|--10--10-----10--10--10-----10--10-----10--10--10--|
G|--------------------------|---------------------------------------------------|
D|--------------------------|---------------------------------------------------|
A|--------------------------|---------------------------------------------------|
E|--------------------------|---------------------------------------------------|

[PostChorus] (Guitar 1 - Flanger):
(Repeat throughout following verse)
E|-----|
B|-----|
G|-----|
D|--7--|
A|--x--|
E|--5--|

[Bridge Rhythm] (Guitar 2):
"This Is How We'll Always Be, Yeah"
E|--------------------------------------|-----------------------------------------|
B|--------------------------------------|-----------------------------------------|
G|--------------------------------------|-----------------------------------------|
D|--7--7--7--7-----7--7--7--7-----7--7--|--7--7--7--7--7--6--6--6--6--6-----6--6--|
A|--7--7--7--7-----7--7--7--7-----7--7--|--7--7--7--7--7--7--7--7--7--7-----7--7--|
E|--5--5--5--5-----5--5--5--5-----5--5--|--5--5--5--5--5--4--4--4--4--4-----4--4--|

[Bridge Leads] (Guitar 1):
"This Is How We'll Always Be, Yeah"
E|--9--9--9--9-----10--10--10--10--10--10--10--|--17------16------16------|
B|--9--9--9--9-----10--10--10--10--10--10--10--|------17------17------17--|
G|--9--9--9--9-----9---9---9---9---9---9---9---|--------------------------|
D|---------------------------------------------|--------------------------|
A|---------------------------------------------|--------------------------|
E|---------------------------------------------|--------------------------|

[Post Bridge Chords](Guitar 1):
"So I'll Put It In A Song..."
E|-----------|
B|-----------|
G|-----------|
D|--0-----2--|
A|--0-----2--|
E|--------0--|

[Post Bridge Lead](Guitar 2):
"So I'll Put It In A Song..."
E|--5-----5/7--|
B|-------------|
G|-------------|
D|-------------|
A|-------------|
E|-------------|

************************************

/ - slide up
\ - slide down
x - muted, struck string

*************************************

            
            
Suggest correction
Creating personal tab
Creating personal tab
You can edit any tab online and save it as your Personal.

You can edit, replace or remove any tab part or add personal notes – all changes will be seen only by you.

Personal tabs can be accessed anytime from any device, even offline.
Learn more »
Give kudos to tab author, rate the tab!
1 2 3 4 5
comments
print report bad tab
guest
You may want to rate the tab now too:
select rating
Wanna post a correction for this tab? Suggest correction