Oops, an error
Loading. Please wait.

If Im James Dean Then Youre Audrey Hepburn Tab

version 1
version 1

Acoustic

Whole song

Interactive

45,106 views 18 this week
4 commentsread comments
1 2 3 4 5
x 6
add to favorites
launch autoscroll
font size
0
reset
how to read this tab
guitar tuner
Autoscroll
slow
fast
+/-
esc
set tempo
stop
Help us to improve Ultimate-Guitar.com Take our survey!
×
Author
This is how to play If "I'm James Dean, You're Audrey Hepburn" Acoustic.
The tuning is weird D A C# F# A D.
Listen to the song for the rhythm.


[Intro]

(0:00-0:30)
D |-0------0------0------0------0------0~--|
A |-0------0------0------0------0------0~--|
F#|-8------3------8------3------5------1~--|
C#|-8------4------8------4------6------1~--|
A |-9------5------9------5------7------2~--|
D |-9------5------9------5------7------2~--|


[Verse 1]

(0:31-58)
D |-0------/0------0------0------0--|
A |-0------/0------0------0------0--|
F#|-8------/5------3------5------1--|
C#|-8------/6------4------6------1--|
A |-9------/7------5------7------2--|  
D |-9------/7------5------7------2--|

D |-0------/0------0------0------0~--|
A |-0------/0------0------0------0~--|
F#|-8------/5------3------5------1~--|
C#|-8------/6------4------6------1~--|
A |-9------/7------5------7------2~--|  
D |-9------/7------5------7------2~--|


[Chorus]

(0:59-1:23)
D |-0------0------0------0--|
A |-0------0------0------0--|
F#|-1------3------8------5--|
C#|-1------4------8------6--|
A |-2------5------9------7--|   
D |-2------5------9------7--|(x2)


[Post-Chorus]

(1:24-1:35)
D |-0------0------0--|
A |-0------0------0--|
F#|-8------3------5--|
C#|-8------4------6--|
A |-9------5------7--|
D |-9------5------7--|


[Verse 2]

(1:36-2:03)
D |-0------/0------0------0------0--|
A |-0------/0------0------0------0--|
F#|-8------/5------3------5------1--|
C#|-8------/6------4------6------1--|
A |-9------/7------5------7------2--|  
D |-9------/7------5------7------2--|

D |-0------/0------0------0------0~--|
A |-0------/0------0------0------0~--|
F#|-8------/5------3------5------1~--|
C#|-8------/6------4------6------1~--|
A |-9------/7------5------7------2~--|  
D |-9------/7------5------7------2~--|


[Chorus]

(2:04-2:28)
D |-0------0------0------0--|
A |-0------0------0------0--|
F#|-1------3------8------5--|
C#|-1------4------8------6--|
A |-2------5------9------7--|  
D |-2------5------9------7--|(x2)


[Breakdown] 

(2:29-3:18)
D |-0~------0~------0~-|
A |-0~------0~------0~-|
F#|-1~------3~------0~-|
C#|-1~------4~------x--|
A |-2~------5~------0~-|   
D |-2~------5~------0~-|(x8)


[Chorus]

(3:19-3:42)
D |-0------0------0------0--|
A |-0------0------0------0--|
F#|-1------3------8------5--|
C#|-1------4------8------6--|
A |-2------5------9------7--| 
D |-2------5------9------7--|(x2)


[Outro]

(3:43-4:16)
D |-0------0------0------0--|
A |-0------0------0------0--|
F#|-1------3------8------5--|
C#|-1------4------8------6--|
A |-2------5------9------7--|
D |-2------5------9------7--|

D |-0------0------0------0------0~--|
A |-0------0------0------0------0~--|
F#|-1------3------8------5------3~--|
C#|-1------4------8------6------4~--|
A |-2------5------9------7------5~--|
D |-2------5------9------7------5~--|



************************************

| ~  Vibrato
| /  Slide up
| x  Dead note

************************************
Suggest correction
comments
print report bad tab
4 comments total. Showing first comments.
0 reply
AvantNeoPunk 190 Mar 03, 2013 04:15 PM

this is pretty much spot on. The only problem is that the

D --0|
A --0|
F#--3|
C#--4|
A --5|
D --5| chord sounds a little off

0 reply
slade.morgan.54 10 Mar 28, 2013 01:56 PM

i agree it sounds like that one chord is in another key

+3 reply
protigo 10 Apr 04, 2013 06:29 PM

It's because the tuning isn't written right. It's D A D# F# A D instead of the C#

guest
You may want to rate the tab now too:
select rating
Wanna post a correction for this tab? Suggest correction