Oops, an error
Loading. Please wait.

If Im James Dean Then Youre Audrey Hepburn Acoustic tab

version 3
version 3

Whole song

Interactive

2,895 views 15 this week
2 commentsread comments
1 2 3 4 5
2 more votes to show rating
add to favorites
×
Save as Personal and add changes to this tab that will be seen only by you. Learn more ›
×
You can save this tab as Personal to edit and correct it or add notes. All changes will be seen only by you. Learn more »
launch autoscroll
font size
0
reset
how to read this tab
guitar tuner
edit
Autoscroll
slow
fast
+/-
esc
set tempo
stop
Tabbed by:lovefood
E-mail:

Tuning: tune E to D, g to F#, b to a, and e to d
I am 100% sure this is correct. I did not steal this from anyone, and if I did 
(unintentionally and unknowingly), I am truly sorry.


[Intro]

Stay for the night...

D |---------------------------------------------------------------------------------------------------------|
A |---------------------------------------------------------------------------------------------------------|
F#|-8-8-8-8-8-8-8-8-8-8-8-8-8-8-8---5-5-5-5-5-5-5-5-5-5-5-5-5-5-5-5-5---------------------------------------|
D |---------------------------------------------------------------------------------------------------------|
A |---------------------------------------------------------------------------------------------------------|
D |-9-9-9-9-9-9-9-9-9-9-9-9-9-9-9---5-5-5-5-5-5-5-5-5-5-5-5-5-5-5-5-5---------------------------------------|

I've been away for. Long time...

D |---------------------------------------------------------------------------------------------------------|
A |---------------------------------------------------------------------------------------------------------|
F#|-8-8-8-8-8-8-8-8-8-8-8-8-8-8-8-8-8---5-5-5-5-5-5-5-5-5-5-5-5---7-7-7-7-7-7-7---8~------------------------|
D |---------------------------------------------------------------------------------------------------------|
A |---------------------------------------------------------------------------------------------------------|
D |-9-9-9-9-9-9-9-9-9-9-9-9-9-9-9-9-9---5-5-5-5-5-5-5-5-5-5-5-5---7-7-7-7-7-7-7---9~------------------------|


How the hell did you ever pick me?....
    (Strum downwards until it gets to the first 7 7, then strum up once. After that, 
continue to strum down wards)
D |-----------------------------------------------------------------------------------|
A |-----------------------------------------------------------------------------------|
F#|8----8----8----8---8----8----8----7----5----5-----5----5-----7----7----1---1----8~-|
D |-----------------------------------------------------------------------------------|
A |-----------------------------------------------------------------------------------|
D |9----9----9----9---9----9----9----7----5----5-----5----5-----7----7----2---2----9~-|


[Chorus] (x3)

They say that love is forever...

D |-------------------------------------------------------------|
A |-------------------------------------------------------------|
F#|-1-1-1-1-1-1-1-1-1-1-1-1---5-5-5-5-5-5-5-5-5-5-5-5-5-5-5-----|
D |-------------------------------------------------------------|
A |-------------------------------------------------------------|
D |-2-2-2-2-2-2-2-2-2-2-2-2---5-5-5-5-5-5-5-5-5-5-5-5-5-5-5-----|

D |-------------------------------------------------------------|
A |-------------------------------------------------------------|
F#|-8-8-8-8-8-8-8-8-8-8-8-8-8-8-8-8---7-7-7-7-7-7-7-7-7-7-7-7-7-|
D |-------------------------------------------------------------|
A |-------------------------------------------------------------|
D |-9-9-9-9-9-9-9-9-9-9-9-9-9-9-9-9---7-7-7-7-7-7-7-7-7-7-7-7-7-|


[Verse 2]

It goes to show I hope that you know who you are....

   (Strum downwards until it gets to the first 7 7, then strum up once. After that, 
continue to strum down wards)
D |-----------------------------------------------------------------------------------|
A |-----------------------------------------------------------------------------------|
F#|8----8----8----8---8----8----8----7----5----5-----5----5-----7----7----1---1----8~-|
D |-----------------------------------------------------------------------------------|
A |-----------------------------------------------------------------------------------|
D |9----9----9----9---9----9----9----7----5----5-----5----5-----7----7----2---2----9~-|


[Chorus] (x2)

They say that love is forever...

D |-------------------------------------------------------------|
A |-------------------------------------------------------------|
F#|-1-1-1-1-1-1-1-1-1-1-1-1---5-5-5-5-5-5-5-5-5-5-5-5-5-5-5-----|
D |-------------------------------------------------------------|
A |-------------------------------------------------------------|
D |-2-2-2-2-2-2-2-2-2-2-2-2---5-5-5-5-5-5-5-5-5-5-5-5-5-5-5-----|

D |-------------------------------------------------------------|
A |-------------------------------------------------------------|
F#|-8-8-8-8-8-8-8-8-8-8-8-8-8-8-8-8---7-7-7-7-7-7-7-7-7-7-7-7-7-|
D |-------------------------------------------------------------|
A |-------------------------------------------------------------|
D |-9-9-9-9-9-9-9-9-9-9-9-9-9-9-9-9---7-7-7-7-7-7-7-7-7-7-7-7-7-|


[Bridge] (x5)

D |--------------------0~-------------------------------------------------------|
A |--------------------0~-------------------------------------------------------|
F#|-----8~------1~-----0~-------------------------------------------------------|
D |--------------------0~-------------------------------------------------------|
A |--------------------0~-------------------------------------------------------|
D |-----9~------2~-----0~-------------------------------------------------------|


[Chorus]
(just about 2 or three measures longer)

They say that love is forever...
D |-------------------------------------------------------------|
A |-------------------------------------------------------------|
F#|-1-1-1-1-1-1-1-1-1-1-1-1---5-5-5-5-5-5-5-5-5-5-5-5-5-5-5-----|
D |-------------------------------------------------------------|
A |-------------------------------------------------------------|
D |-2-2-2-2-2-2-2-2-2-2-2-2---5-5-5-5-5-5-5-5-5-5-5-5-5-5-5-----|

D |-------------------------------------------------------------|
A |-------------------------------------------------------------|
F#|-8-8-8-8-8-8-8-8-8-8-8-8-8-8-8-8---7-7-7-7-7-7-7-7-7-7-7-7-7-|
D |-------------------------------------------------------------|
A |-------------------------------------------------------------|
D |-9-9-9-9-9-9-9-9-9-9-9-9-9-9-9-9---7-7-7-7-7-7-7-7-7-7-7-7-7-|



************************************

| ~  Vibrato

************************************

            
            
Suggest correction
Creating personal tab
Creating personal tab
You can edit any tab online and save it as your Personal.

You can edit, replace or remove any tab part or add personal notes – all changes will be seen only by you.

Personal tabs can be accessed anytime from any device, even offline.
Learn more »
Give kudos to tab author, rate the tab!
1 2 3 4 5
comments
print report bad tab
2 comments total.
0 reply
Soujiro89 64 Sep 20, 2014 10:19 AM, edited at 02:27 pm

Hey, love the work! You helped me get the tuning right! Personally I prefer tuning the 3rd string to G instead of F# since it makes switching between chords much easier. Also I added one more note to each chord for it to sound more robust and less open. I based this around this video: https://www.youtube.com/watch?v=Xg53mh-HAOE (Although I think the guitar is tuned much lower to ease Quinn)It would be like this:D |---------------------------------------------------------------------------|A |---------------------------------------------------------------------------|F |-777777777777777---44444444444444444---------------------------------------|D |---------------------------------------------------------------------------|A |-999999999999999---55555555555555555---------------------------------------|D |-999999999999999---55555555555555555---------------------------------------|I've been away for. Long time...D |---------------------------------------------------------------------------|A |---------------------------------------------------------------------------|F |-77777777777777777---444444444444---6666666---7~---------------------------|D |---------------------------------------------------------------------------|A |-99999999999999999---555555555555---7777777---9----------------------------|D |-99999999999999999---555555555555---7777777---9~---------------------------|
And so on...

0 reply
Soujiro89 64 Sep 20, 2014 10:29 AM

Correcting my own tab:

D |---------------------------------------------------------------------------|
A |---------------------------------------------------------------------------|
G |-777777777777777---44444444444444444---------------------------------------|
D |---------------------------------------------------------------------------|
A |-999999999999999---55555555555555555---------------------------------------|
D |-999999999999999---55555555555555555---------------------------------------|

I've been away for. Long time...
D |---------------------------------------------------------------------------|
A |---------------------------------------------------------------------------|
G |-77777777777777777---444444444444---6666666---7~---------------------------|
D |---------------------------------------------------------------------------|
A |-99999999999999999---555555555555---7777777---9----------------------------|
D |-99999999999999999---555555555555---7777777---9~---------------------------|

guest
You may want to rate the tab now too:
select rating
Wanna post a correction for this tab? Suggest correction