Oops, an error
Loading. Please wait.

If Im James Dean Youre Audrey Hepburn Acoustic Tab

version 1
version 1

Whole song

68,530 views 33 this week
2 commentsread comments
1 2 3 4 5
worth learning
x 7
add to favorites
launch autoscroll
font size
0
reset
how to read this tab
guitar tuner
Tab Pro tools
  • play this tab
  • loop segment
  • change instrument
  • show fretboard
  • metronome
×
Best way to learn
"If Im James Dean Youre Audrey Hepburn Acoustic"
Autoscroll
slow
fast
+/-
esc
set tempo
stop
Contributor
Difficulty
Tuning
intermediate
B E A D F# B
Tabbed by: veggie_raptors!
Email:vamprissprincess92@yahoo.com

http://www.youtube.com/watch?v=vLjDbuU-Bc8&feature=related
Tuning: B F# B E G# C#  ((Tip: Put your capo on the 3rd fret and tune down to drop D)


Intro:

C#|---x--x--x--x--x--x--x--x-----|
G#|---8--x--x--x--5--6--x--x-----|
E |---5--4--7--5--5--5--4--5-----|  (2x)
B |---7--5--5--3--3--3--5--6-----|
F#|---7--5--5--3--3--3--5--6-----|
B |---7--5--5--3--3--3--5--6-----|

Verse:

C#|---x--x--X--x--x-----|
G#|---5--8--5--3--x-----|
E |---5--9--5--4--5-----|  (2x)
B |---7--7--7--5--7-----|
F#|---x--x--X--x--5-----|
B |---x--X--x--x--x-----|

C#|--------------5---|
G#|-------8------8---|
E |---5-----5----5---|
B |-7---7-----7--7---|
F#|------------------|
B |------------------|

Chorus:

C#|---x--x---x---x---x---x--x-----|
G#|---8--12--13--x---x---5--0-----|
E |---5--12--12--12--9---4--4-----|  (2x)
B |---7--10--10--10--10--2--2-----|
F#|---7--10--10--8---8---2--2-----|
B |---7--10--10--x---x---2--2-----|

C#|---x--5--x--5--x--x--x--|
G#|---x--5--x--5--x--x--x--|
E |---5--5--5--5--5--x--x--|
B |---7--x--7--x--3--0--x--|
F#|---7--x--7--x--3--0--x--|
B |---7--x--7--x--3--0--x--|

Verse:

C#|---x--x--x--x--x--x--x--x-----|
G#|---8--x--x--x--5--6--x--x-----|
E |---5--4--7--5--5--5--4--5-----|  (2x)
B |---7--5--5--3--3--3--5--6-----|
F#|---7--5--5--3--3--3--5--6-----|
B |---7--5--5--3--3--3--5--6-----|

C#|---x--x--x--x--x--x--x-----|
G#|---8--x--x--x--5--6--x-----|
E |---5--4--7--5--5--5--4-----|    (I couldn't figure out the picking)
B |---7--5--5--3--3--3--5-----|    (So play this but palm mute it.    )
F#|---7--5--5--3--3--3--5-----|
B |---7--5--5--3--3--3--5-----|

Chorus:

C#|---x--x---x---x---x---x--x-----|
G#|---8--12--13--x---x---5--0-----|
E |---5--12--12--12--9---4--4-----|  (2x)
B |---7--10--10--10--10--2--2-----|
F#|---7--10--10--8---8---2--2-----|
B |---7--10--10--x---x---2--2-----|

Bridge:

C#|---x------------------|
G#|---5-------------3----|
E |---5--------4----4----|
B |---7----5-----5-------|
F#|---7--5---5-----5-----|
B |---7------------------|

C#|----------3---------3---------3---------3-0-------|
G#|--------------------------------------------3-----|
E |--0-2-4-5---0-2-4-5---0-2-4-5---0-2-4-5-----------| (2x)
B |--------------------------------------------------|
F#|--------------------------------------------------|
B |--------------------------------------------------|

C#|---x--x--x--x-----|
G#|---x--5--6--x-----|
E |---5--5--5--4-----|
B |---3--3--3--5-----|
F#|---3--3--3--5-----|
B |---3--3--3--5-----|

Chorus:

C#|---x--x---x---x---x---x--x-----|
G#|---8--12--13--x---x---5--0-----|
E |---5--12--12--12--9---4--4-----|  (2x)
B |---7--10--10--10--10--2--2-----|
F#|---7--10--10--8---8---2--2-----|
B |---7--10--10--x---x---2--2-----|

Outro:

C#|---x--x--x--x--x--x--x-----|
G#|---8--x--x--x--5--6--x-----|
E |---5--4--7--5--5--5--4-----|    (I couldn't figure out the picking)
B |---7--5--5--3--3--3--5-----|    (So play this but palm mute it.    )
F#|---7--5--5--3--3--3--5-----|
B |---7--5--5--3--3--3--5-----|

comments
print report bad tab
2 comments total.
0 reply
Andyutz wrote on July 11 2012, 03:06 am

I was just goofing around but I think picking is something like thi

C#|---------------------------------------------------------------------------------------------------------|
G#|----------------------------------------------------------------------------------------------7---------|
E |----------------------------------------------------9-0-9-0-9-0-10-0-----7-0-7-0-7-0---10-----|
B |-------------------------------------------12-10--------------------------------------------------------|
F#|-9-0-9-0-9-0-12-0----9-0-9-0-9-0----------------------------------------------------------------|
B |-----------------------------------------------------------------------------------------------------------|

0 reply
Andyutz wrote on July 11 2012, 03:08 am

 

I was just goofing around but I think picking is something like this (not exactly what he plays but close)

C#|---------------------------------------------------------------------------------------------------------|
G#|----------------------------------------------------------------------------------------------7---------|
E |----------------------------------------------------9-0-9-0-9-0-10-0-----7-0-7-0-7-0---10-----|
B |-------------------------------------------12-10--------------------------------------------------------|
F#|-9-0-9-0-9-0-12-0----9-0-9-0-9-0----------------------------------------------------------------|
B |-----------------------------------------------------------------------------------------------------------|

I want to post or [tab]
guest
You may want to rate the tab now too:
select rating
Please do not post tabs as comments. Select "correction" instead!