Oops, an error
Loading. Please wait.

If Im James Dean Youre Audrey Hepburn Tab

version 1
version 1

Whole song

Interactive

110,535 views 18 this week
7 commentsread comments
1 2 3 4 5
x 15
add to favorites
launch autoscroll
font size
0
reset
how to read this tab
guitar tuner
×
Best way to learn
"If Im James Dean Youre Audrey Hepburn"
Autoscroll
slow
fast
+/-
esc
set tempo
stop
Author
Tuning
C# G# C# F# A# D#
[Intro]
D#|-------------------------------------------------------------|
A#|-------------------------------------------------------------|
F#|-------------------------------------------------------------|
C#|-77-77-----77-77----3333333333333333-5555555555555555--------|
G#|-77-77-----77-77----3333333333333333-5555555555555555--------| (2x)
C#|-77-77-----77-77----3333333333333333-5555555555555555--------|

D#|------------------------------|
A#|-tp17-------tp15---tp12-tp13--|
F#|------------------------------|
C#|------------------------------|
G#|------------------------------|
C#|------------------------------|

[Verse]
D#|--------------------------------------------------------------------|
A#|-5-5-5-5-5-5-5-5-5-5-5-5-5-5-5-5-1-1-1-1-1-1-1-1-3-3-3-3-4-4-4-4----|
F#|-5-5-5-5-5-5-5-5-5-5-5-5-5-5-5-5-2-2-2-2-2-2-2-2-4-4-4-4-4-4-4-4----|
C#|-7-7-7-7-7-7-7-7-7-7-7-7-7-7-7-7-3-3-3-3-3-3-3-3-5-5-5-5-6-6-6-6----|
G#|--------------------------------------------------------------------| (2x)
C#|--------------------------------------------------------------------|

D#|-----5---7---------|
A#|------5---5----5~--|
F#|---5---5---5-------|
C#|-7-----------7-----|
G#|-------------------|
C#|-------------------|

[Chorus]
D#|----------------------|
A#|----------------------|
F#|----------------------|
C#|-3----7----10----9----|
G#|-3----7----10----9----| (2x)
C#|-3----7----10----9----|

[Verse]
D#|---------------------------------------|
A#|----66b------6-66b---------------------|
F#|----99b------9-99b---------------------|
C#|-77-----7-77--------33333333-00000000--|
G#|-77-----7-77--------33333333-00000000--|
C#|-77-----7-77--------33333333-00000000--|

D#|------------------------------------------------------------|
A#|----66b------6-66b------66b------6-66b----------------------|
F#|----99b------9-99b------99b------9-99b----------------------|
C#|-77-----7-77--------77------7-77-------33333333-00000000----|
G#|-77-----7-77--------77------7-77-------33333333-00000000----|
C#|-77-----7-77--------77------7-77-------33333333-00000000----|

[Chorus]
D#|----------------------|
A#|----------------------|
F#|----------------------|
C#|-3----7----10----9----|
G#|-3----7----10----9----| (2x)
C#|-3----7----10----9----|

[Bridge]
D#|----------------------------------------------------|
A#|----------------------------------------------------|
F#|-3h4-----3h4------3h4----3h4------3h4---3-3h4---3---|
C#|----2h3-----2h3------2h3----2h3------2h3-----2h3----|
G#|----------------------------------------------------|
C#|----------------------------------------------------|

D#|-----------15~-----------15---------|
A#|------13h15---------13h15---16-15---|
F#|-14h15---------14h15----------------|
C#|------------------------------------|
G#|------------------------------------| (6x)
C#|------------------------------------|

[Chorus]
D#|----------------------|
A#|----------------------|
F#|----------------------|
C#|-3----7----10----9----|
G#|-3----7----10----9----| (2x)
C#|-3----7----10----9----|


************************************

| ~  Vibrato
| b  Bend
| h  Hammer-on

************************************
Suggest correction
comments
print report bad tab
7 comments total. Showing first comments.
0 reply
Miss_K 31 Sep 04, 2010 02:09 AM

Amazing song...About to put your tab to test...:P

0 reply
Bowers-OSF 31 Dec 06, 2010 03:33 PM

for the bridge:

|----------------------------------------------------------|
|----------------------------------------------------------|
|-4h5-2---4h5-2---4h5-2--4-4h5-2--4---4h5-2--4-4h5-2--4----|
|------3-------3-------3--------3----------3--------3------|
|----------------------------------------------------------|
|----------------------------------------------------------|

|----------------------------------------------------------|
|----------20----------20-17-----------20----------20-17p15|
|-----17h19-------17h19-----------17h19-------17h19--------|
|17h19-------17h19-----------17h19-------17h19-------------|
|----------------------------------------------------------|
|----------------------------------------------------------|

(second part is x3, the first is just x1)

Other than that, good tab man:)I might start working on the other lead parts to help you out.

+1 reply
Lonetree 10 Jul 21, 2012 01:42 PM

Wtf...this tab sucks... I've gone through the intro and the first verse and they're both wrong.

guest
You may want to rate the tab now too:
select rating
Wanna post a correction for this tab? Suggest correction