Oops, an error
Loading. Please wait.

If Im James Dean Youre Audrey Hepburn Acoustic tab

version 6
version 6

Interactive

413 views 18 this week
no commentswrite comment
1 2 3 4 5
3 more votes to show rating
add to favorites
×
Save as Personal and add changes to this tab that will be seen only by you. Learn more ›
×
You can save this tab as Personal to edit and correct it or add notes. All changes will be seen only by you. Learn more »
launch autoscroll
font size
0
reset
how to read this tab
guitar tuner
edit
Autoscroll
slow
fast
+/-
esc
set tempo
stop
--------------------------------------------------------------------------
          Sleeping With Sirens - If Im James Dean Youre Audrey Hepburn Acoustic
-------------------------------------------------------------------------------
Tabbed by: Jane Hilton
E-mail: krewella2015@mail.ru

Hi guys! This is tab for their first acoustic variation. Hope you enjoy!

https://www.youtube.com/watch?v=vLjDbuU-Bc8


Tuning: Drop B ( Drop C and 1/2 half step down)

INTRO
e|---x---x---x---x---x-x---x---x-----------------------------------------------------|
B|---8---x---x---x---6-5---x---x-----------------------------------------------------|
G|---5---4---7---5---5-5---4---5-------Repeat x2-------------------------------------|
D|---x---x---5---3---3-3---x---x-----------------------------------------------------|
A|---7---5---5---3---3-3---5---6-----------------------------------------------------|
E|---7---5---5---3---3-3---5---6-----------------------------------------------------|

VERSE
e|---x--------x--------x---------x--------x----------------------------------------------|
B|---x--------x--------x---------x--------x--------------------------------------8-------|
G|---9--------12-------9---------7--------5----------Repeat x2----Then------5------------|
D|---10--x8---14--x8---10---x8---9---x4---7---x4-------------------------------7---------|
A|---x--------x--------x---------x--------x----------------------------------------------|
E|---x--------x--------x---------x--------x----------------------------------------------|


CHORUS
e|---x---x---x----x-----x----x--x--|
B|---8---x---13---x-----x----5--x--|
G|---5---12--12---12-10-x----x--4--|
D|---x---10--10---10-10-10---2--2--|
A|---7---10--10---8--8--8----0--0--|
E|---7---10--10---x--x--x----x--x--|

THEN
e|---x----------x--------x----------------------------------------------------------|
B|---x--^5------x--------x----------------------------------------------------------|
G|---5----------2--------x------x---------------------------------------------------|
D|---x----------x--------0------x---------------------------------------------------|
A|---7----------3--------0------x---------------------------------------------------|
E|---7----------3--------0----------------------------------------------------------|

After repeat INTRO


Background riff
e|----------------------------------------------------------------------------------------------------------|
B|----------------------------------------------------------------------------------------------------------|
G|----------------------------------------------------------------------------------------------------------|
D|-------------------------------------------12p0--10p0--9p0--9h10--9p0-7p0-------7p0--9h10-----------------|
A|-12p0--10p0--10h12p0---12p0--10p0--10h12p0---------------------------------10p0---------------------------|
E|----------------------------------------------------------------------------------------------------------|

e|---------------------------------------------------------------------------------------|
B|---------------------------------------------------------------------------------------|
G|---------------------------------------------------------------------------------------|
D|-------------------------------------------12p0--10p0--9p0--9h10--/14-12-10-9h10-------|
A|-12p0--10p0--10h12p0---12p0--10p0--10h12p0----------------------------------------12~--|
E|---------------------------------------------------------------------------------------|

BRIDGE
e|----x---x-------------3-----------3----------3------------3--0-----------x---x---------------|
B|----x---x-------0h1-------0h1---------0h1----------0h1-------------------x---x---------------|
G|----5---4---------0h2--------0h2----------0h2---------0h2----------------2---3---------------|
D|----7---x----------------------------------------------------------------x---x---------------|
A|----8---5----------------------------------------------------------------3---5---------------|
E|----x---5-----------------------------------------------------Palm Mute--3---5---------------|

Then repeat CHORUS and Background riff

e|-----------------x--------------------------------------------------------------|
B|-----------------8--~~----------------------------------------------------------|
G|-In the end------5--~~----------------------------------------------------------|
D|-----------------x--~~----------------------------------------------------------|
A|-----------------7--------------------------------------------------------------|
E|-----------------7--------------------------------------------------------------|

            
            
Suggest correction
Creating personal tab
Creating personal tab
You can edit any tab online and save it as your Personal.

You can edit, replace or remove any tab part or add personal notes – all changes will be seen only by you.

Personal tabs can be accessed anytime from any device, even offline.
Learn more »
Give kudos to tab author, rate the tab!
1 2 3 4 5
comments
print report bad tab
guest
You may want to rate the tab now too:
select rating
Wanna post a correction for this tab? Suggest correction