Oops, an error
Loading. Please wait.

If You Cant Hang Tab

version 3
version 3

Whole song

Interactive

64,400 views 54 this week
10 commentsread comments
1 2 3 4 5
x 35
add to favorites
launch autoscroll
font size
0
reset
how to read this tab
guitar tuner
Autoscroll
slow
fast
+/-
esc
set tempo
stop
Help us to improve Ultimate-Guitar.com Take our survey!
×
Re-tabbed, tweeked, and modified:
By Brandon Fernandez

Note the last people who attempted to tab this song did it in
C# tuning when the song is really in drop C...
This is the correct Tabature/fretting for the correct tuning [DROP C]. I basically took 
their tab and changed the frets to get the right sound in Drop C Tuning.

Also as a side note: all the faint background guitar mentioned in (ver2) is simple C G C 
bar Chords (where you lay your index across the top 3 strings)... listen to the song 
and you can easily find them on your own

I put about 2hrs into this fixing this jam so hopefully its 10x better.
5-STAR ME IF You Think so!!
thanks!

Tuning :[C G C F A D]

INTRO/CHORUS
e|---------------------------------------------------------------------------|
B|--------------------------------------8-8-10-10-12-12-10-10-13-13-12-12-12-|
G|11h12h11----------12h14h12-9/11-------9-9--9--9--9--9--9--9--9--9--9--9--9-|
D|--------12h14h12-----------------X2!!--------------------------------------|
A|---------------------------------------------------------------------------|
E|---------------------------------------------------------------------------|
Play Twice.


0:30
e|---------------------------------------------------------------------------|
B|-/8--------/12--------\5--------/10~-------/~8-------/12--------\5-----/~10|
G|---------------------------------------------------------------------------|
D|---------------------------------------------------------------------------|
A|---------------------------------------------------------------------------|
E|---------------------------------------------------------------------------|

PRECHORUS
0:49
e|15---15---15----17---17---17----14---14---14----15---15---15---------------|
B|--15---15---15----15---15---15----15---15---15----15---15---15-------------|
G|----16---16---------16---16---------16---16---------16---16----------------|
D|---------------------------------------------------------------------------|
A|---------------------------------------------------------------------------|
E|---------------------------------------------------------------------------|
(Play twice but stop at the end of the 16,14)

1:09
e|-1010101010101010-------1212121212121212-----------------------------------|
B|--x-x-x-x-x-x-x-x--------x-x-x-x-x-x-x-x-----------------------------------|
G|--9-9-9-9-9-9-9-9--------9-9-9-9-9-9-9-9-----------------------------------|
D|---------------------------------------------------------------------------|
A|---------------------------------------------------------------------------|
E|---------------------------------------------------------------------------|

CHORUS
1:13
e|---------------------------------------------------------------------------|
B|--------------------------------------8-8-10-10-12-12-10-10-13-13-12-12-12-|
G|11h12h11----------12h14h12-9/11-------9-9--9--9--9--9--9--9--9--9--9--9--9-|
D|--------12h14h12-----------------X2!!--------------------------------------|
A|---------------------------------------------------------------------------|
E|---------------------------------------------------------------------------|
(Play Twice.)

1:33
e|---------------------------------------------------------------------------|
B|---------------------------------------------------------------------------|
G|---------------------------------------------------------------------------|
D|-10-10-10--10-10-10-10---12-12-12--12-12-12-12-----------------------------|
A|-10-10-10--10-10-10-10---12-12-12--12-12-12-12-----------------------------|
E|-10-10-10--10-10-10-10---12-12-12--12-12-12-12-----------------------------|

1:39
e|-/15---------/15----------/15----------------------------------------------|
B|----19-15-------19-15h17-----19-15------/15/17 15h17-----------------------|
G|---------16\----------------------16\--------------------------------------|
D|---------------------------------------------------------------------------|
A|---------------------------------------------------------------------------|
E|---------------------------------------------------------------------------|
(Play the above solo or the below background riff)

e|---------------------------------------------------------------------------|
B|---------------------------------------------------------------------------|
G|--16-16161616-16161616-14-14---14--------------------12-12---12------------|
D|---x--x-x-x-x--x-x-x-x--x--x(X4)x(X4)16-16---16-------x--x(X4)x(X4)--------|
A|--14-14141414-14141414 12-12---12-----x--x(X4)x(X4)--10-10---10------------|
E|-------------------------------------14-14---14----------------------------|

1:49
e|---------------------------------------------------------------------------|
B|---------------------------------------------------------------------------|
G|--1616161616161616-1414141414141414------------------1212121212121212------|
D|---x-x-x-x-x-x-x-x--x-x-x-x-x-x-x-x-1616161616161616--x-x-x-x-x-x-x-x------|
A|--1414141414141414-1212121212121212--x-x-x-x-x-x-x-x-1010101010101010------|
E|------------------------------------1414141414141414-----------------------|

1:59
e|14---14---14----17---17---17----12---12---12----14---14---14---------------|
B|--15---15---15----15---15---15----15---15---15----15---15---15-------------|
G|----16---16---------16---16---------16---16---------16---16----------------|
D|---------------------------------------------------------------------------|
A|---------------------------------------------------------------------------|
E|---------------------------------------------------------------------------|
(play 2x stop 1/2 way on second meter)

2:20
e|-1010101010101010-------1212121212121212-----------------------------------|
B|--x-x-x-x-x-x-x-x--------x-x-x-x-x-x-x-x-----------------------------------|
G|--9-9-9-9-9-9-9-9--------9-9-9-9-9-9-9-9-----------------------------------|
D|---------------------------------------------------------------------------|
A|---------------------------------------------------------------------------|
E|---------------------------------------------------------------------------|

2:25
e|---------------------------------------------------------------------------|
B|--------------------------------------8-8-10-10-12-12-10-10-13-13-12-12-12-|
G|11h12h11----------12h14h12-9/11-------9-9--9--9--9--9--9--9--9--9--9--9--9-|
D|--------12h14h12-----------------X2!!--------------------------------------|
A|---------------------------------------------------------------------------|
E|---------------------------------------------------------------------------|
(Play Twice.)

2:45
e|---------------------------------------------------------------------------|
B|---------------------------------------------------------------------------|
G|-------------------(X2)----------------------(X2)--------------------------|
D|-2-2-2--10-10-10--7-7-7----2-2-2--10-10-10--7-7-7--------------------------|
A|-2-2-2--10-10-10--7-7-7----2-2-2--10-10-10--7-7-7--------------------------|
E|-2-2-2--10-10-10--7-7-7----2-2-2--10-10-10--7-7-7--------------------------|
(Play full part 2X)

3:05
e|---------------------------------------------------------------------------|
B|-/8--------/12--------\5--------/10~-------/~8-------/12--------\5-----/~10|
G|---------------------------------------------------------------------------|
D|---------------------------------------------------------------------------|
A|---------------------------------------------------------------------------|
E|---------------------------------------------------------------------------|

3:18
e|14---14---14----17---17---17----12---12---12----14---14---14---------------|
B|--15---15---15----15---15---15----15---15---15----15---15---15-------------|
G|----16---16---------16---16---------16---16---------16---16----------------|
D|---------------------------------------------------------------------------|
A|---------------------------------------------------------------------------|
E|---------------------------------------------------------------------------|
(play 2x stop 1/2 way on second meter)

3:37
e|---------------------------------------------------------------------------|
B|--------------------------------------8-8-10-10-12-12-10-10-13-13-12-12-12-|
G|11h12h11----------12h14h12-9/11-------9-9--9--9--9--9--9--9--9--9--9--9--9-|
D|--------12h14h12-----------------X2!!--------------------------------------|
A|---------------------------------------------------------------------------|
E|---------------------------------------------------------------------------|
(Play until the end of song.)






************************************

| /   slide up
| \   slide down
| h   hammer-on
| p   pull-off
| ~   vibrato
| +   harmonic
| x   Mute note
| b   Bend
| pb  Pre-bend
| br  Bend release
| pbr Pre-bend release
| brb Bend release bend
Suggest correction
comments
print report bad tab
10 comments total. Showing first comments.
-1 reply
brock30 73 Sep 06, 2012 10:40 PM

You can play it in C#, it works, since in C it nevers goes below 2.

0 reply
daevilmonkie 40 Feb 04, 2013 12:26 PM

If your ganna re do a tab, do it right.

+2 reply
CelesteUKband 109 Apr 24, 2013 07:39 AM

Daevilmonkie, that's kinda harsh. As is, i think this guys got a good tab that just needs some tweaking.

guest
You may want to rate the tab now too:
select rating
Wanna post a correction for this tab? Suggest correction