Oops, an error
Loading. Please wait.

If You Cant Hang Tab

version 7
version 7

Whole song

Interactive

43 views 1 this week
no commentswrite comment
1 2 3 4 5
3 more votes to show rating
add to favorites
launch autoscroll
font size
0
reset
how to read this tab
guitar tuner
Autoscroll
slow
fast
+/-
esc
set tempo
stop
Help us to improve Ultimate-Guitar.com Take our survey!
×
Author
Difficulty
Tuning
intermediate
C G C F A D
About this tab version
Chorus is played differently in this version, incorporated many bridges, verses, and riffs. Was this info helpful? Yes No
Tabbed by: PierceTheKnight
Based off the video: https://youtu.be/z3Bfz31dwdY
Email: tatianna0498@gmail.com

[Intro] [Preferable to hit in 3's]

D|--------------------------------------------------------------------------|
A|--------------------------------------------------------------------------|
F|--------------------------------------------------------------------------|
C|----5-5-5-5-5-5-5-5-5--/9--9--9---4-4-4-4-4-4-4-4-4-----------------------| [x2]
G|----7-7-7-7-7-7-7-7-7--/10-10-10--5-5-5-5-5-5-5-5-5-----------------------|
C|--------------------------------------------------------------------------|

D|-----------------------------------------------------|
A|------------------------7----------------------------|
F|------------------------7----------------------------|
C|-2----------------------7----------------------------|
G|-2---------------------------------------------------|
C|-2---------------------------------------------------|
  PM                      ^ Natural Harmonic

[Chorus x2]

D|-2h3p2---------3/5\3p0-----3--3--3-------|
A|--------3/5p0-------------7--7--7--------|
F|-----------------------------------------| [x2]
C|-----------------------------------------|
G|-----------------------------------------|
C|-----------------------------------------|

D|---3---3/--5---5/---7---7\---5---5/---8----8----8----8\----7---7---7---|
A|-5---5/--7---7/---8---8\---7---7/--10---10---10---10\----8---8---8-----|
F|-----------------------------------------------------------------------|
C|-----------------------------------------------------------------------|
G|-----------------------------------------------------------------------|
C|-----------------------------------------------------------------------|

[Verse]

D|-----------------------|
A|--/8~--/12~--\5~--/10~-|
F|-----------------------|
C|-----------------------| [x2]
G|-----------------------|
C|-----------------------|

[Post Chorus Riff]

D|-14----14----14----17----17----17----12----12----12-----|
A|---15----15----15----15----15----15----15----15----15---|
F|-----16----16----------16----16----------16----16-------|
C|--------------------------------------------------------| [x2]
G|--------------------------------------------------------|
C|--------------------------------------------------------|


D|-----------------------------|
A|-----------------------------|
F|-----------------------------|
C|-5-----------2---------------| [x2]
G|-7--[x16]----3----[x16]------|
C|-----------------------------|
          PM this whole part


[Chorus x2]

D|-2h3p2---------3/5\3p0-----3--3--3-------|
A|--------3/5p0-------------7--7--7--------|
F|-----------------------------------------| [x2]
C|-----------------------------------------|
G|-----------------------------------------|
C|-----------------------------------------|

D|---3---3/--5---5/---7---7\---5---5/---8----8----8----8\----7---7---7---|
A|-5---5/--7---7/---8---8\---7---7/--10---10---10---10\----8---8---8-----|
F|-----------------------------------------------------------------------|
C|-----------------------------------------------------------------------|
G|-----------------------------------------------------------------------|
C|-----------------------------------------------------------------------|

[Interlude]

D|--------------------|-/15------------|-/15--------------|-/15------------------------|
A|--------------------|-----19-15------|-----19--15--17~--|----19-15----------17-17-17-|  [Repeat about
F|--------------------|-----------16~--|------------------|----------16/19\14----------|    3 times]
C|-2--------10--------|----------------|------------------|----------------------------|
G|-3-[x6]---10-[x16]--|----------------|------------------|----------------------------|
C|----------10--------|----------------|------------------|----------------------------|

Or you could play it like this, whichever is easier:

D|-/15--14----------|-/15-14--------------|-/15--14-------------------------|
A|---------15-------|--------15--17~------|---------15-----------17-17-17---|
F|------------16~---|---------------------|------------16/19\14-------------| [Repeat about 3 times]
C|------------------|---------------------|---------------------------------|
G|------------------|---------------------|---------------------------------|
C|------------------|---------------------|---------------------------------|


D|-14----14----14----17----17----17----12----12----12-----|
A|---15----15----15----15----15----15----15----15----15---|
F|-----16----16----------16----16----------16----16-------|
C|--------------------------------------------------------| [x2]
G|--------------------------------------------------------|
C|--------------------------------------------------------|

D|-----------------------------|
A|-----------------------------|
F|-----------------------------|
C|-5-----------2---------------| [x2]
G|-7--[x16]----3----[x16]------|
C|-----------------------------|
          PM this whole part


[Chorus x2]

D|-2h3p2---------3/5\3p0-----3--3--3-------|
A|--------3/5p0-------------7--7--7--------|
F|-----------------------------------------| [x2]
C|-----------------------------------------|
G|-----------------------------------------|
C|-----------------------------------------|

D|---3---3/--5---5/---7---7\---5---5/---8----8----8----8\----7---7---7---|
A|-5---5/--7---7/---8---8\---7---7/--10---10---10---10\----8---8---8-----|
F|-----------------------------------------------------------------------|
C|-----------------------------------------------------------------------|
G|-----------------------------------------------------------------------|
C|-----------------------------------------------------------------------|


[Bridge]

D|----0---------0---------0-----0----|
A|----0---------0---------0-----0----|
F|----0---------0---------0-----0----|
C|-2----2----10---10----7---7-7---7--| [x2]
G|-2----2----10---10----7---7-7---7--|
C|-2----2----10---10----7---7-7---7--|

D|---------------------------------|
A|---------------------------------|
F|---------------------------------|
C|---------------------------------|
G|---------------------------------|
C|-2-2-2--/10-10-10\--7-7-7-7-7-7--|

D|----------------------------|
A|--/8~--/12~--\5~--/10~-\8~--|
F|----------------------------|
C|----------------------------|
G|----------------------------|
C|----------------------------|

D|-14----14----14----17----17----17----12----12----12-----|
A|---15----15----15----15----15----15----15----15----15---|
F|-----16----16----------16----16----------16----16-------|
C|--------------------------------------------------------| [x2]
G|--------------------------------------------------------|
C|--------------------------------------------------------|

[Chorus] [x2]

D|-2h3p2---------3/5\3p0-----3--3--3-------|
A|--------3/5p0-------------7--7--7--------|
F|-----------------------------------------| [x2]
C|-----------------------------------------|
G|-----------------------------------------|
C|-----------------------------------------|

D|---3---3/--5---5/---7---7\---5---5/---8----8----8----8\----7---7---7---|
A|-5---5/--7---7/---8---8\---7---7/--10---10---10---10\----8---8---8-----|
F|-----------------------------------------------------------------------|
C|-----------------------------------------------------------------------|
G|-----------------------------------------------------------------------|
C|-----------------------------------------------------------------------|

[Final Riff, end on]

D|-----------------------------|
A|-----------------------------|
F|-----------------------------|
C|-5-----------2---------------| [x2]
G|-7--[x16]----3----[x16]------|
C|-----------------------------|
          PM this whole part


End. :D

************************************

| h   Hammer-on
| p   Pull-off
| /   Slide up
| \   Slide down
| ~   Vibrato
| PM  Palm mute

************************************
Suggest correction
Give kudos to tab author, rate the tab!
1 2 3 4 5
comments
print report bad tab
guest
You may want to rate the tab now too:
select rating
Wanna post a correction for this tab? Suggest correction