Oops, an error
Loading. Please wait.

Kick Me tab

version 2
version 2

Whole song

1,894 views 21 this week
no commentswrite comment
1 2 3 4 5
x 7
add to favorites
×
Save as Personal and add changes to this tab that will be seen only by you. Learn more ›
×
You can save this tab as Personal to edit and correct it or add notes. All changes will be seen only by you. Learn more »
launch autoscroll
font size
0
reset
how to read this tab
guitar tuner
edit
Autoscroll
slow
fast
+/-
esc
set tempo
stop
INTRO
D ----9----10------7---9-------4----5------------------------------------------------------------------|
A ----7-----7------7---7-------7----7-----7~-----------------------------------------------------------|
F -----------------------------------------------------------------------------------------------------|
C -----------------------------------------------------------------------------------------------------|
G -----------------------------------------------------------------------------------------------------|
C -----------------------------------------------------------------------------------------------------|

VERSE
D -----------------------------------------------------------------------------------------------------|
A -----------------------------------------------------------------------------------------------------|
F ----6---6---6----------------------------------------------------------------------------------------|
C ----6---x---6---x3---------0------2--------all x2----------------------------------------------------|
G ----4---4---4--------------0------2------------------------------------------------------------------|
C ---------------------------0------2------------------------------------------------------------------|

PRE-CHORUS
D ----9------9-------12---------/----------------------------------------------------------------------|
A ---10-----12-------10---------/----------------------------------------------------------------------|
F ---11-----11-------9----------/----------------------------------------------------------------------|
C -----------------------------------------------------------------------------------------------------|
G -----------------------------------------------------------------------------------------------------|
C -----------------------------------------------------------------------------------------------------|

CHORUS
D ------------------------------------------------------------------1st ending---2nd-------------------|
A ----------------------1st-------2nd---------------10----7-------------9-------ending-----------------|
F ---------------------ending----ending-------------x-----x----7--------x---------10-------------------|
C ---4----0----7---------2---------11---x2----------7-----4----x--------6----------x-----x2------------|
G ---4----0----7---------2---------11--------------------------4-------------------8-------------------|
C ---4----0----7---------2---------11------------------------------------------------------------------|

RIFF
D -----------------------------------------------------------------------------------------------------|
A -----------------------------------------------------------------------------------------------------|
F -----------------------------------------------------------------------------------------------------|
C ---4--------------4-----------------4-------------------------3--------------------------------------|
G ---------------------------------------------------------0--4----------------------------------------|
C -------4-4-4-4------4-4----4-4-------4-4---4-4-------------------------------------------------------|

SECOND VERSE
D -----------------------9---10---9---12---9---10--9--7------------------------------------------------|
A -----------------------7---7----7---7----7---7---7--7------------------------------------------------|
F ----6---6---6----------------------------------------------------------------------------------------|
C ----6---x---6---x3-----------------------------------------------------------------------------------|
G ----4---4---4----------------------------------------------------------------------------------------|
C -----------------------------------------------------------------------------------------------------|
repeat pre-chorus, then chorus then

BRIDGE
D ---9----10---9---7---9----------------12b----13b------15b---17b--------------------------------------|
A ---7----7----7---7---7----11----------15b----16b------17b---19b--------------------------------------|
F --------------------------9--------------------------------------------------------------------------|
C ---------------------------------------------------------------------x2------------------------------|
G -----------------------------------------------------------------------------------------------------|
C -----------------------------------------------------------------------------------------------------|
Then repeat the riff to the end

            
            
Suggest correction
Creating personal tab
Creating personal tab
You can edit any tab online and save it as your Personal.

You can edit, replace or remove any tab part or add personal notes – all changes will be seen only by you.

Personal tabs can be accessed anytime from any device, even offline.
Learn more »
comments
print report bad tab
guest
You may want to rate the tab now too:
select rating
Wanna post a correction for this tab? Suggest correction