Oops, an error
Loading. Please wait.

Kick Me tab

version 3
version 3

Whole song

667 views 3 this week
no commentswrite comment
1 2 3 4 5
x 3
add to favorites
×
Save as Personal and add changes to this tab that will be seen only by you. Learn more ›
×
You can save this tab as Personal to edit and correct it or add notes. All changes will be seen only by you. Learn more »
launch autoscroll
font size
0
reset
how to read this tab
guitar tuner
edit
Autoscroll
slow
fast
+/-
esc
set tempo
stop
This is my first tab so I apologize if there are any mistakes. If you do happen to find any mistakes with this
tab please comment the correction and I will fix the error. Also for those wondering this is the same way they
play the song live.

If you don't know how to tune your guitar to drop C here is a link to an online tuner. (You will have to do it
by ear) -----> https://www.youtube.com/watch?v=-ydwG1PT2Yk

Please note that the 11's in the intro and second verse is how the band play it although it still sounds okay
without them. Also note that you should let the last note of the intro ring out.

Enjoy :)

Guitar 1 - Jack
Guitar 2 - Nick

[Intro]

Guitar 1

D|------------------------------------------------------------------------------------------------------------|
A|--14--14--14--14--15--15--15--15--15--12--12--12--12--14--14--14--14--9---9---9---9---10--10--10--10--7-----|
F|--11--11--11--11--11--11--11--11--11--11--11--11--11--11--11--11--11--11--11--11--11--11--11--11--11--11----|
C|------------------------------------------------------------------------------------------------------------|
G|------------------------------------------------------------------------------------------------------------|
C|------------------------------------------------------------------------------------------------------------|

[Verse 1]

Guitar 1 & 2

D|--------------------------------------------------------------------------------|
A|--------------------------------------------------------------------------------|
F|-----6--4--6-----6--4--6-----6--4--6--------------------------------------------| (Play this twice)
C|-----4--4--4-----4--4--4-----4--4--4--------0--0--0--0--2--2--2--2--2--2--2-----|  
G|--------------------------------------------0--0--0--0--2--2--2--2--2--2--2-----|
C|--------------------------------------------0--0--0--0--2--2--2--2--2--2--2-----|

[Pre-Chorus]

Guitar 1 & 2

D|----9-------------10-----------9-------------------|
A|----10---(x12)----10---(x4)----10---(8x)-----------|
F|----11------------11-----------11------------------| (After last chord slide down the neck)
C|---------------------------------------------------|
G|---------------------------------------------------|
C|---------------------------------------------------|

[Chorus]

Guitar 1

D|---------------------------------------------------------------------------|
A|---------------------------------------------------------------------------|   
F|---------------------------------------------------------------------------|   
C|-4-4-4-4-4-4-4-0-0-0-0-0-0-0-0-7-7-7-7-7-7-7-7-2-2-2-2-2-2-2-2-------------|   
G|-4-4-4-4-4-4-4-0-0-0-0-0-0-0-0-7-7-7-7-7-7-7-7-2-2-2-2-2-2-2-2-------------|   
C|-4-4-4-4-4-4-4-0-0-0-0-0-0-0-0-7-7-7-7-7-7-7-7-2-2-2-2-2-2-2-2-------------|    
                                                                                 
D|---------------------------------------------------------------------------|   
A|---------------------------------------------------------------------------|   
F|---------------------------------------------------------------------------|   
C|-4-4-4-4-4-4-4-4-0-0-0-0-0-0-0-0-----7----7-----3---3---3-3-3-3------------|   
G|-4-4-4-4-4-4-4-4-0-0-0-0-0-0-0-0-----7----7-----4---4---4-4-4-4------------|    
C|-4-4-4-4-4-4-4-4-0-0-0-0-0-0-0-0-----7----7-----3---3---3-3-3-3------------| 

(Play this twice)


D|---------------------------------------------------------------------------|
A|---------------------------------------------------------------------------|
F|---------------------------------------------------------------------------|   (Play this twice)
C|-4---------------4-----------------4---------------------------------------|
G|--------------------------------------------------0--4---------------------|
C|---4-4---4-4-4-----4-4---4-4-4-4----4-4---4-4-4---------3------------------|


Guitar 2

D|-----------------------------------------------------------------------------------|   
A|-----------------------------------------------------------------------------------|   
F|-14-14-14-14-14-14-14-14--11-11-11-11-11-11-11-11--18-18-18-18-18-18-18-18---------|   
C|-X--X--X--X--X--X--X--X---X--X--X--X--X--X--X--X---X--X--X--X--X--X--X--X----------|   
G|-12-12-12-12-12-12-12-12--9--9--9--9--9--9--9--9---16-16-16-16-16-16-16-16---------|   
C|-----------------------------------------------------------------------------------|   
                                                                                               
D|-------------------------------------------------------------------------------------------------------|   
A|-------------------------------------------------------------------------------------------------------|   
F|-13-13-13-13-13-13-13-13--14-14-14-14-14-14-14-14--111111111111111-----18---18----10---10--10-10-10-10-|   
C|-X--X--X--X--X--X--X--X---X--X--X--X--X--X--X--X---X-X-X-X-X-X-X-X-----X----X-----X----X---X--X--X--X--|   
G|-11-11-11-11-11-11-11-11--12-12-12-12-12-12-12-12--9-9-9-9-9-9-9-9-----16---16----8----8---8--8--8--8--|   
C|-------------------------------------------------------------------------------------------------------|    

(Play this twice)
                                                                                 

D|---------------------------------------------------------------------------|
A|---------------------------------------------------------------------------|
F|---------------------------------------------------------------------------|       (Play this twice)
C|-4---------------4-----------------4---------------------------------------|
G|--------------------------------------------------0--4---------------------|
C|---4-4---4-4-4-----4-4---4-4-4-4----4-4---4-4-4---------3------------------|

[Verse 2]

Guitar 1 & 2

D|---------------------------------------|
A|---------------------------------------|
F|----6--4--6-----6--4--6-----6--4--6----|
C|----4--4--4-----4--4--4-----4--4--4----| 
G|---------------------------------------|
C|---------------------------------------|

D|--------------------------------------------------------------------------------------------------------|
A|-14--14--14--14--15--15--15--15--15--12--12--12--12--17--17--17--17--14--14--14--14--15--15--15--15--15-|
F|-11--11--11--11--11--11--11--11--11--11--11--11--11--11--11--11--11--11--11--11--11--11--11--11--11--11-|
C|--------------------------------------------------------------------------------------------------------|
G|--------------------------------------------------------------------------------------------------------|
C|--------------------------------------------------------------------------------------------------------|

D|---------------------------------------|
A|---------------------------------------|
F|---------------------------------------|
C|---0--0--0--0--2--2--2--2--2--2--2-----|
G|---0--0--0--0--2--2--2--2--2--2--2-----|
C|---0--0--0--0--2--2--2--2--2--2--2-----|

[Pre-Chorus]

Guitar 1 & 2

D|----9-------------10-----------9-------------------|
A|----10---(x12)----10---(x4)----10---(8x)-----------|
F|----11------------11-----------11------------------| (After last chord slide down the neck)
C|---------------------------------------------------|
G|---------------------------------------------------|
C|---------------------------------------------------|


[Chorus]

Guitar 1

D|---------------------------------------------------------------------------|
A|---------------------------------------------------------------------------|   
F|---------------------------------------------------------------------------|   
C|-4-4-4-4-4-4-4-0-0-0-0-0-0-0-0-7-7-7-7-7-7-7-7-2-2-2-2-2-2-2-2-------------|   
G|-4-4-4-4-4-4-4-0-0-0-0-0-0-0-0-7-7-7-7-7-7-7-7-2-2-2-2-2-2-2-2-------------|   
C|-4-4-4-4-4-4-4-0-0-0-0-0-0-0-0-7-7-7-7-7-7-7-7-2-2-2-2-2-2-2-2-------------|    
                                                                                 
D|---------------------------------------------------------------------------|   
A|---------------------------------------------------------------------------|   
F|---------------------------------------------------------------------------|   
C|-4-4-4-4-4-4-4-4-0-0-0-0-0-0-0-0-----7----7-----3---3---3-3-3-3------------|   
G|-4-4-4-4-4-4-4-4-0-0-0-0-0-0-0-0-----7----7-----4---4---4-4-4-4------------|    
C|-4-4-4-4-4-4-4-4-0-0-0-0-0-0-0-0-----7----7-----3---3---3-3-3-3------------| 

(Play this twice)


D|---------------------------------------------------------------------------|
A|---------------------------------------------------------------------------|
F|---------------------------------------------------------------------------|   (Play this twice)
C|-4---------------4-----------------4---------------------------------------|
G|--------------------------------------------------0--4---------------------|
C|---4-4---4-4-4-----4-4---4-4-4-4----4-4---4-4-4---------3------------------|


Guitar 2

D|-----------------------------------------------------------------------------------|   
A|-----------------------------------------------------------------------------------|   
F|-14-14-14-14-14-14-14-14--11-11-11-11-11-11-11-11--18-18-18-18-18-18-18-18---------|   
C|-X--X--X--X--X--X--X--X---X--X--X--X--X--X--X--X---X--X--X--X--X--X--X--X----------|   
G|-12-12-12-12-12-12-12-12--9--9--9--9--9--9--9--9---16-16-16-16-16-16-16-16---------|   
C|-----------------------------------------------------------------------------------|   
                                                                                               
D|-------------------------------------------------------------------------------------------------------|   
A|-------------------------------------------------------------------------------------------------------|   
F|-13-13-13-13-13-13-13-13--14-14-14-14-14-14-14-14--111111111111111-----18---18----10---10--10-10-10-10-|   
C|-X--X--X--X--X--X--X--X---X--X--X--X--X--X--X--X---X-X-X-X-X-X-X-X-----X----X-----X----X---X--X--X--X--|   
G|-11-11-11-11-11-11-11-11--12-12-12-12-12-12-12-12--9-9-9-9-9-9-9-9-----16---16----8----8---8--8--8--8--|   
C|-------------------------------------------------------------------------------------------------------|    

(Play this twice)
                                                                                 

D|---------------------------------------------------------------------------|
A|---------------------------------------------------------------------------|
F|---------------------------------------------------------------------------|       (Play this twice)
C|-4---------------4-----------------4---------------------------------------|
G|--------------------------------------------------0--4---------------------|
C|---4-4---4-4-4-----4-4---4-4-4-4----4-4---4-4-4---------3------------------|

[Hook]

Guitar 1

D|---------------------------------------------------------------------------|
A|---------------------------------------------------------------------------|   
F|---------------------------------------------------------------------------|   
C|-4-4-4-4-4-4-4-0-0-0-0-0-0-0-0-7-7-7-7-7-7-7-7-2-2-2-2-2-2-2-2-------------|   
G|-4-4-4-4-4-4-4-0-0-0-0-0-0-0-0-7-7-7-7-7-7-7-7-2-2-2-2-2-2-2-2-------------|   
C|-4-4-4-4-4-4-4-0-0-0-0-0-0-0-0-7-7-7-7-7-7-7-7-2-2-2-2-2-2-2-2-------------|    
                                                                                 
D|---------------------------------------------------------------------------|   
A|---------------------------------------------------------------------------|   
F|---------------------------------------------------------------------------|   
C|-4-4-4-4-4-4-4-4-0-0-0-0-0-0-0-0-----7----7-----3---3---3-3-3-3------------|   
G|-4-4-4-4-4-4-4-4-0-0-0-0-0-0-0-0-----7----7-----4---4---4-4-4-4------------|    
C|-4-4-4-4-4-4-4-4-0-0-0-0-0-0-0-0-----7----7-----3---3---3-3-3-3------------| 

(Play this twice)

Guitar 2

D|-----------------------------------------------------------------------------------|   
A|-----------------------------------------------------------------------------------|   
F|-14-14-14-14-14-14-14-14--11-11-11-11-11-11-11-11--18-18-18-18-18-18-18-18---------|   
C|-X--X--X--X--X--X--X--X---X--X--X--X--X--X--X--X---X--X--X--X--X--X--X--X----------|   
G|-12-12-12-12-12-12-12-12--9--9--9--9--9--9--9--9---16-16-16-16-16-16-16-16---------|   
C|-----------------------------------------------------------------------------------|   
                                                                                               
D|-------------------------------------------------------------------------------------------------------|   
A|-------------------------------------------------------------------------------------------------------|   
F|-13-13-13-13-13-13-13-13--14-14-14-14-14-14-14-14--111111111111111-----18---18----10---10--10-10-10-10-|   
C|-X--X--X--X--X--X--X--X---X--X--X--X--X--X--X--X---X-X-X-X-X-X-X-X-----X----X-----X----X---X--X--X--X--|   
G|-11-11-11-11-11-11-11-11--12-12-12-12-12-12-12-12--9-9-9-9-9-9-9-9-----16---16----8----8---8--8--8--8--|   
C|-------------------------------------------------------------------------------------------------------|    

(Play this twice)
                                                                                 
[Outro]

Guitar 1 & 2

D|---------------------------------------------------------------------------|
A|---------------------------------------------------------------------------|
F|---------------------------------------------------------------------------|       (Play this five times)
C|-4---------------4-----------------4---------------------------------------|
G|--------------------------------------------------0--4---------------------|
C|---4-4---4-4-4-----4-4---4-4-4-4----4-4---4-4-4---------3------------------|


##############
#            #
# End Of Tab #
#            #
##############

            
            
Suggest correction
Creating personal tab
Creating personal tab
You can edit any tab online and save it as your Personal.

You can edit, replace or remove any tab part or add personal notes – all changes will be seen only by you.

Personal tabs can be accessed anytime from any device, even offline.
Learn more »
Give kudos to tab author, rate the tab!
1 2 3 4 5
comments
print report bad tab
guest
You may want to rate the tab now too:
select rating
Wanna post a correction for this tab? Suggest correction