Oops, an error
Loading. Please wait.

Let Love Bleed Red tab

version 1
version 1

Whole song

19,707 views 3 this week
1 commentread comment
1 2 3 4 5
x 3
add to favorites
×
Save as Personal and add changes to this tab that will be seen only by you. Learn more ›
×
You can save this tab as Personal to edit and correct it or add notes. All changes will be seen only by you. Learn more »
launch autoscroll
font size
0
reset
how to read this tab
guitar tuner
edit
Autoscroll
slow
fast
+/-
esc
set tempo
stop
Author
Difficulty
Key of B major
I    ii    iii   IV   V     vi    vii
Bmaj C#min D#min Emaj F#maj G#min A#dim

Verses 1 & 2:
B  A#                  G#m
...Is it naive to make plans that seem... 

                      A#                                  G#m
E|-----------------------------|----------------------------------|
B|-----------------------------|----------------------------------|
G|--------------------3-3-3-3--|----------------------3-----------|
D|-------------1--4---4-4-4-4--|--------------------1-----6-6-6-6-|
A|-------2--4---------1-1-1-1--|---------------2--4-------6-6-6-6-|
E|-----------------------------|--------------------------4-4-4-4-|
       "So far away?"             "There's a reason I feel this way..."

B    A#dim    G#m
Your sleeping alone I'm awake...


                        A#                                  G#m
E|-------------------------------|----------------------------------|
B|-------------------------------|----------------------------------|
G|----------------------3-3-3-3--|------------------3---------------|
D|-------------1--4-----4-4-4-4--|---------------1----------6-6-6-6-|
A|-------2--4-----------1-1-1-1--|---------2--4-------------6-6-6-6-|
E|-------------------------------|--------------------------4-4-4-4-|
  "When you dream of me tonight"     "am I closer where you are?"
                         


Chorus:

     B           A#           G#m     A#dim B
E|------------------------------------------------|    ||
B|------------------------------------------------|    ||
G|---4-----------3--------------------------------|    ||
D|---4-----------4------------6----------8--9-----|    ||
A|---2-----------1------------6----------9--9-----|    ||
E|----------------------------4----------6--7-----|    ||
                                                       ||  
    "Lay me down tell me everything will be alright"   || Repeat this
                                                       || entire section
     G#m         A#dim B                               || twice
E|------------------------------------------------|    ||
B|------------------------------------------------|    ||
G|------------------------------------------------|    ||
D|---6-----------8-----9--------------------------|    ||
A|---6-----------7-----9--------------------------|    ||
E|---4-----------6-----7--------------------------|    || 
                                                       ||
 "...Things will be alright"                           ||

Post Chorus:
B                    A#                  B
This could mean everything or nothing at all

B                A#                     B
You take what is real, I'll give you my all
               
Repeat Verse:
Is it naive to make plans that seem
so so so far away?
I think "let's not wait, let's love right now,
Let's love right now"

Repeat Chorus:
Lay me down tell me everything will be alright
Things will be alright
Lay me down tell me everything will be alright
Things will be alright

B
Oh, here where we lie,
                              A#
Outstretched to wonder why we don't belong
                                               B
You deserve much more, and I'll give until I'm all gone

Forever know your face
                   A#
And ever take your place here by my side,

Like a ghost into the night,
    B
The poisoned apple to my bite,

I'll be the shadow at your door,
            A#
I'll be the moth into your light,
                             
'Cause you deserve much more...
B                             A#
Yeah, 'cause you deserve much more

Buildup: A# palm muted

Repeat Chorus 
Lay me down and tell me everything will be alright
Things will be alright
Thunder storms could never shake us
Lay me down and kiss me like
This will be alright
Everything Will be alright

Repeat Post chorus
This could mean everything or nothing at all
You take what is real, I'll give you my all
This could mean everything or nothing at all
You take what is real, I'll give you my all

            
            
Suggest correction
Creating personal tab
Creating personal tab
You can edit any tab online and save it as your Personal.

You can edit, replace or remove any tab part or add personal notes – all changes will be seen only by you.

Personal tabs can be accessed anytime from any device, even offline.
Learn more »
Give kudos to tab author, rate the tab!
1 2 3 4 5
comments
print report bad tab
1 comment total.
0 reply
Monkeydud137 160 May 20, 2013 11:10 AM

UPDATE: 5/20/13
Fixed everything and included bridge chords!

guest
You may want to rate the tab now too:
select rating
Wanna post a correction for this tab? Suggest correction