Oops, an error
Loading. Please wait.

Let Love Bleed Red tab

version 2
version 2

Whole song

3,503 views 1 this week
no commentswrite comment
1 2 3 4 5
2 more votes to show rating
add to favorites
×
Save as Personal and add changes to this tab that will be seen only by you. Learn more ›
×
You can save this tab as Personal to edit and correct it or add notes. All changes will be seen only by you. Learn more »
launch autoscroll
font size
0
reset
how to read this tab
guitar tuner
edit
Autoscroll
slow
fast
+/-
esc
set tempo
stop
READ THIS:
THIS IS PRETTY ACCURATE. I MADE IT SHORTER.

JUST FIGURE OUT THE TIMING AND THE STRUMMING CAUSE I KNOW YOU CAN. :)


Tabbed by: Ervin
  From Philippines.

STANDARD TUNING
CAPO ON 2ND FRET. (CHORDS ARE RELATED FROM THE CAPO.)





VERSE:
e|---------------0-0-----------------------------0-0-0-0------|
B|--x-x--2-2-----0-0-------------------2-2-2-2---0-0-0-0------|
G|--x-x--2-2-----1-1-------------------2-2-2-2---1-1-1-1------|  FIGURE OUT
D|--x-x--2-2-----2-2----4-4-4-4--------x-x-x-x---2-2-2-2------|  THE TIMING
A|--x-x--0-0-----x-x----4-4-4-4--------4-4-4-4---x-x-x-x------|  HERE.
E|---------------4-4----2-2-2-2------------------4-4-4-4------|


CHORUS:
 PART I
e|---------------------------------|
B|--2-2-2-2-x-2-2-2-2--------------|
G|--2-2-2-2-x-2-2-2-2--------------|
D|--2-2-2-2-x-2-2-2-2--------------|
A|--x-x-x-x-x-x-x-x-x--------------|
E|---------------------------------|

e|--0-0-0-0-x-0-0-0-0--------------|
B|--0-0-0-0-x-0-0-0-0--------------|
G|--1-1-1-1-x-1-1-1-1--------------|
D|--2-2-2-2-x-2-2-2-2--------------|
A|--x-x-x-x-x-x-x-x-x--------------|
E|--4-4-4-4-x-4-4-4-4--------------|

e|----------------0-0-0-0---------------|
B|----------------0-0-0-0---------------|
G|----------------1-1-1-1---------------|
D|--4-4-4-4-4-4---2-2-2-2---------------|
A|--4-4-4-4-4-4---2-2-2-2---------------|
E|--2-2-2-2-2-2---0-0-0-0---------------|

         REPEAT 2X AND THEN:
 PART II
e|--2-2-2-2---------------------------------------|
B|--3-3-3-3---2-2-2-2---2-2-2-2-------------------|
G|--2-2-2-2---2-2-2-2---2-2-2-2---1-1-1-1---------|
D|--0-0-0-0---x-x-x-x---2-2-2-2---2-2-2-2---------|
A|------------4-4-4-4---0-0-0-0---x-x-x-x---------|
E|--------------------------------4-4-4-4---------|



REPEAT VERSE

REPEAT CHORUS BUT UNTIL PART I ONLY


BRIDGE:
 BRIDGE GOES LIKE THIS:
e|--2-2-2-2-2-2-2-2---------------------------------|
B|--3-3-3-3-3-3-3-3---------2-2-2-2-2-2-2-2---------|  REPEAT MANY TIMES UNTIL
G|--2-2-2-2-2-2-2-2---------2-2-2-2-2-2-2-2---------|  THE BREAKDOWN AND
D|--0-0-0-0-0-0-0-0---------x-x-x-x-x-x-x-x---------|  CHORUS
A|--------------------------4-4-4-4-4-4-4-4---------|
E|--------------------------------------------------|


REPEAT CHORUS


-------------------------------------------------------------------------
THE END

PLEASE RATE AND COMMENT FOR CORRECTIONS AND SUGGESTIONS. AVOID RUDE COMMENTS CAUSE IM 
NOOB. :)

            
            
Suggest correction
Creating personal tab
Creating personal tab
You can edit any tab online and save it as your Personal.

You can edit, replace or remove any tab part or add personal notes – all changes will be seen only by you.

Personal tabs can be accessed anytime from any device, even offline.
Learn more »
Give kudos to tab author, rate the tab!
1 2 3 4 5
comments
print report bad tab
guest
You may want to rate the tab now too:
select rating
Wanna post a correction for this tab? Suggest correction