Oops, an error
Loading. Please wait.

Lets Cheers To This Bass Tab

version 1
version 1

Whole song

4,804 views 1 this week
no commentswrite comment
1 2 3 4 5
1 last vote to show rating
add to favorites
launch autoscroll
font size
0
reset
guitar tuner
Autoscroll
slow
fast
+/-
esc
set tempo
stop
Help us to improve Ultimate-Guitar.com Take our survey!
×
Difficulty
Tuning
novice
C G C F A D
my first tab so don't be harsh. 
love sleeping with sirens new album and i wanted to learn this so bad! xD
 
It's all by ear so there maybe some mistakes and im not sure if it's in 
Drop C or Drop C# 
if you have any comments on it, please do x) 

/slide
h hammer on
p pull off


.Intro x2
F|---------------------------------|---------------------------------|
C|---------------------------------|---------------------------------|
G|----------------------12-12-12-12|----------12-12-12-12------------|
C|-3-33-3-33-5-55-5-55-------------|-7-7-7-7--------------7-7-7-7----|
.end intro
F|-------------|
C|-------------|
G|-------------|
C|-00-00--12/5-|


.Verse x2 
F|---------------------------------|-----------------|
C|---------------------------------|-----------------|
G|---------------------------------|-----------------|   
C|-7-77-7-77--6-66-6-66--5-55-5-55-|-4-44--4-44------|
.end verse
F|----------------|
C|----------------|
G|----------------|
C|-5----55555-----|


.chorus x4
F|---------------------------------|---------------------------------|
C|---------------------------------|---------------------------------|
G|----------------------12-12-12-12|----------12-12-12-12------------|
C|-3-33-3-33-5-55-5-55-------------|-7-7-7-7--------------7-7-7-7----|
.end chorus
F|-------------|
C|-------------|
G|-------------|
C|-00-00--12/5-|

.verse 2 x2
F|---------------------------------|-----------------|
C|---------------------------------|-----------------|
G|---------------------------------|-----------------|   
C|-7-77-7-77--6-66-6-66--5-55-5-55-|-4-44--4-44------|
.end verse 2
.end chorus
F|----------------------|
C|----------------------|
G|--------5-------------|
C|-7-5h7p5----7-5h7p5-0-|


chorus 2 x4
F|---------------------------------|---------------------------------|
C|---------------------------------|---------------------------------|
G|----------------------12-12-12-12|----------12-12-12-12------------|
C|-3-33-3-33-5-55-5-55-------------|-7-7-7-7--------------7-7-7-7----|
.end chorus
F|-------------|
C|-------------|
G|-------------|
C|-00-00--12/5-|


.Break down
F|---------------------------------|---------------------------------|
C|---------------------------------|---------------------------------|
G|---------------------------------|---------------------------------|
C|-000000-----000000---00-12/------|-000000-----000000----------0----|


chours 3 x4
F|---------------------------------|---------------------------------|
C|---------------------------------|---------------------------------|
G|----------------------12-12-12-12|----------12-12-12-12------------|
C|-3-33-3-33-5-55-5-55-------------|-7-7-7-7--------------7-7-7-7----|
.end chorus
F|-------------|
C|-------------|
G|-------------|
C|-00-00--12/5-|


outro x2
F|-------------------------------------|
C|-------------------------------------|
G|--------12x16-------------12x16------|
C|-000000----------000000------------0-|
Suggest correction
Give kudos to tab author, rate the tab!
1 2 3 4 5
comments
print report bad tab
guest
You may want to rate the tab now too:
select rating
Wanna post a correction for this tab? Suggest correction