Oops, an error
Loading. Please wait.

Madness tab

version 2
version 2

Whole song

950 views 1 this week
2 commentsread comments
1 2 3 4 5
2 more votes to show rating
add to favorites
×
Save as Personal and add changes to this tab that will be seen only by you. Learn more ›
×
You can save this tab as Personal to edit and correct it or add notes. All changes will be seen only by you. Learn more »
launch autoscroll
font size
0
reset
how to read this tab
guitar tuner
edit
Autoscroll
slow
fast
+/-
esc
set tempo
stop
-------------------------------------------------------------------------------
                             Madness - Sleeping With Sirens
-------------------------------------------------------------------------------
Tabbed by: Queenbellatrix1

Capo 1
Tuning: Standard

verse:
(most of these are power chords but are played on the E and D string by finger
 picking.) I filled in some of lyrics to demonstrate the speed
e|---------------------------------------------------------------------------|
B|---------------------------------------------------------------------------|
G|------------------------------------------------------------------7--------|
D|--4---5---7----9----9--8-------7---------------4---5---7---9---8-----7-----|
A|---------------------------------------------------------------------------|
E|-2---3---5----7----7--6------5----------------2---3---5---7---6------5-----|
  all of  my  life  I  built this armour

e|----------------------------------------------------------------------------|
B|----------------------------------------------------------------------------|
G|----------------------------------------------------------------7-----------|
D|---4----5----7----9----9----8----7--------4----5----7---9----8--------------|
A|--------------------------------------------------------------------5-------|
E|--2----3----5----7----7----6----5-------2----3----5---7----6----------------|
  ashes and  dust  I   made an  island  facing the end  I  said,  "what for?"

pre chorus:

e|---------------------------------------------------------------------------|
B|---------------------------------------------------------------------------|
G|--------6---------6---------7---------7------------------------------------|
D|-----7-----7----7----7---9-----9----9----9---(REPEAT X3)-------------------|
A|--7-----------7--------9---------9-----------------------------------------|
E|---------------------------------------------------------------------------|
  sometimes   its   a      battle

   FILLER:
e|---------------------------------------------------------------------------|
B|---------------------------------------------------------------------------|
G|---------------------------------------------------------------------------|
D|-----5-----5--7-----5----4----------5-----5------7-----5-----4-------------|
A|---------------------------------------------------------------------------|
E|---------------------------------------------------------------------------|
sometimes   we all  lose strength   please don't  lose  your  faith

CHORUS:
(THIS IS FINGER PICKING BUT IN THE CHORDS D,A,Bm and G BUT I LIKE TO SIMPLIFY IT
AND ONLY USE THE FINGERS ON MY LEFT (right for left handed people) I NEED.)
         D               A                Bm                 G
e|----2------2----|----------------|-----------------|----------------|--|
B|------3-------3-|-------2--------|-------3---------|-------3--------|--|
G|--------2-------|-----2---2---2--|-----4---4---4---|-----0---0---0--|--|
D|--0-------------|---2-------2----|---4-------4-----|---0-------0-------|(REPEAT X2)
A|----------------|----------------|-----------------|----------------|--|
E|----------------|----------------|-----------------|----------------|--|
  After our time      passed we're      light through     glass
        has              like             stained

Verse 2:

e|---------------------------------------------------------------------------|
B|---------------------------------------------------------------------------|
G|--------------------------------------------------------------------7------|
D|--4---5---7----9----9--8-------7---------------4---5---7---9-----8-----7---|
A|---------------------------------------------------------------------------|
E|-2---3---5----7----7--6------5----------------2---3---5---7-----6------5---|
  out of  the skies I shaped  the silence      in from the earth i carved these walls


e|---------------------------------------------------------------------------|
B|---------------------------------------------------------------------------|
G|----------------------------------7----------------------------------7-----|
D|----4-----5------7-----9-----8--------7-----------4---5---7---9---8-----7--|
A|---------------------------------------------------------------------------|
E|--2-----3-----5-----7-----6--------5------------2---3---5---7---6------5---|
   a    peice  of    the world was only mine    and then i   said i wanted more

Chorus 2:
(HERE, THE SONG TURNS MORE RHYTHMN SO THEY USE CHORDS)

A                                    BM

At    the    edge    of    the    blackness


A                                          Bm
When    you're    stretched    to   the   core

 A                              Bm
Catch   hold    of    the    madness


   FILLER:
e|---------------------------------------------------------------------------|
B|---------------------------------------------------------------------------|
G|---------------------------------------------------------------------------|
D|-----5-----5--7-----5----4----------5-----5------7-----5-----4---------0---|
A|---------------------------------------------------------------------------|
E|---------------------------------------------------------------------------|
  sometimes we all lose  strength   please don't  lose your   faith   in me

 D                            A

After   our   time   has   passed

                 Bm                          G
We're   like   light   through   stained   glass

           D                     A
We   go   on   and   on   and   on

            Bm                    G
In   the   end   we're   never   gone

D                              A
I   will   be   yours   to   trust

             Bm                     G
This   is   not   the   last   of   us

           D                    A
We   go   on   and   on   and   on

           Bm                     G
In   the   end   we're   never   gone


   FILLER:
e|---------------------------------------------------------------------------|
B|---------------------------------------------------------------------------|
G|---------------------------------------------------------------------------|
D|-----5-----5--7-----5----4----------5-----5------7-----5-----4-------------|
A|---------------------------------------------------------------------------|
E|---------------------------------------------------------------------------|
   please don't lose your faith     please don't lose  your faith


e|---------------------------------------------------------------------------|
B|---------------------------------------------------------------------------|
G|---------------------------------------------------------------------------|
D|-----5-----5--7-----5----4------0------------------------------------------|
A|---------------------------------------------------------------------------|
E|---------------------------------------------------------------------------|
        in   me                 in me

            
            
Suggest correction
Creating personal tab
Creating personal tab
You can edit any tab online and save it as your Personal.

You can edit, replace or remove any tab part or add personal notes – all changes will be seen only by you.

Personal tabs can be accessed anytime from any device, even offline.
Learn more »
Give kudos to tab author, rate the tab!
1 2 3 4 5
comments
print report bad tab
2 comments total.
0 reply
Audible Warfare 806 Aug 02, 2015 10:18 PM

Lack of formatting. Lack of formatting Lack of formatting Lack of formatting Lack of formatting Lack of formatting Lack of formatting Lack of formatting

0 reply
holothewisewolf252.cs 10 Dec 23, 2015 08:50 AM

I don't believe this is quite right. It should be more like Version 1 of the tab found on E-Chords.

guest
Wanna post a correction for this tab? Suggest correction