Oops, an error
Loading. Please wait.

Roger Rabbit Tab

version 2
version 2

Interactive

234,665 views 399 this week
15 commentsread comments
1 2 3 4 5
excellent!
x 132
add to favorites
launch autoscroll
font size
0
reset
how to read this tab
guitar tuner
Autoscroll
slow
fast
+/-
esc
set tempo
stop
Help us to improve Ultimate-Guitar.com Take our survey!
×
Author
The other version of this song that someone put up is extreamly incorrect so here you go!

E|--------2-----------------5/2-----------2-----------------5/2--|
B|-----------------3-----0-------------------------3-----0-------|
G|-----0--------------0-------------0-----------------0----------|
D|--2-----------2----------------2-----2--------2----------------|
A|-----------3-------------------------------3-------------------|
E|---------------------------------------------------------------|
                      Note:(The chord you hear at the end of the
                            verse is the first chord of  the chorus)

               [CHORUS] chords
E|--0--3--0--0-----------------------------------------------|
B|--3--3--1--0-----------------------------------------------|
G|--0--0--2--0-----------------------------------------------|
D|--2--0--2--2-----------------------------------------------|
A|--3--2--0--2-----------------------------------------------|
E|--x--3--x--0-----------------------------------------------|


    BRIDGE: Some people might just use the same chords as the chorus but I prefer these chords
E|--0--2--0--0-----------------------------------------------|
B|--3--3--0--1-----------------------------------------------|
G|--0--4--0--2-----------------------------------------------|
D|--2--4--2--2-----------------------------------------------|
A|--3--2--2--0-----------------------------------------------|
E|--x--x--0--x-----------------------------------------------|

ENJOY!



************************************

| x  Dead note
| /  Slide up

************************************
Suggest correction
What's this?
You can suggest a correction to this tab. Community and Mods will review your correction and vote to approve or reject it.
comments
print report bad tab
15 comments total. Showing first comments.
+2 reply
AraThiOn 92 wrote on December 1 2012, 11:14 am

E|--------2-----------------5/2---------2-----------------5/2|
B|-----------------3-----0-----------------------3-----0-----|
G|-----0--------------0-----------0-----------------0--------|
D|--2-----------2--------------2-----2--------2--------------|
A|-----------3-----------------------------3-----------------|
E|-----------------------------------------------------------|

+10 reply
dpiHTML 37 wrote on December 2 2012, 05:29 pm

E|--------2-----------------5p2---------2-----------------5p2|
B|-----------------3-----0-----------------------3-----0-----|
G|-----0--------------0-----------0-----------------0--------|
D|--2-----------2--------------2-----2--------2--------------|
A|-----------3-----------------------------3-----------------|
E|-----------------------------------------------------------|

@AraThiOn: The slide catches all the notes from 5 to 2. You'd rather have a quick pull-off to create the sharp, crisp note of the 5p2, then begin to play intro over.

During the intro, the 2-0-2 sweep happens, then you hit the last 2 and quickly pull off, with a gentle rest. then play the 3-2-3, 0-0-5p2. Throughout the entire song, they continue the same theme of quick pull-offs. That is why is should be a pull-off, not a slide. c: Good ear though.

+5 reply
AraThiOn 92 wrote on December 8 2012, 07:49 am

Yeah, I have listened to it again and I have to admit, that the pulloff fits kinda more. But I really have to appreciate that at least you posted right tab for this song. My girlfriend kinda loves this song, so you don't really know how much you helped me. ;) Thanks. 5/5

guest
You may want to rate the tab now too:
select rating
Please do not post tabs as comments. Select "correction" instead!