Oops, an error
Loading. Please wait.

Stomach Tied In Knots Tab

version 1
version 1

Whole song

41,695 views 39 this week
no commentswrite comment
1 2 3 4 5
x 5
add to favorites
launch autoscroll
font size
0
reset
how to read this tab
guitar tuner
Autoscroll
slow
fast
+/-
esc
set tempo
stop
Author
Difficulty
Tuning
intermediate
D A D G B E
Tuning: Drop D
No capo

[Verse]
e|----------------------|
B|----------------------|
G|--9----9----7---------|
D|--7----7----7---------| (x2)
A|--9----7----5---------|
D|--x----7----0---------|

[Pre-Chorus]  
"I'll push you away.."
e|-----------------------|
B|-----------------------|
G|--9----9----9----7-----|
D|--7----0----0----7-----|
A|--0----x----x----5-----|
D|--x----9----7----0-----|

[Chorus]
e|----------------------|
B|----------------------|
G|--9----9----7---------|
D|--7----7----7---------|
A|--9----7----5---------|
D|--x----x----0---------|

"I only have myself to blame.."

e|-----------------------|
B|-----------------------|
G|--9----9----7----9-----|
D|--7----7----7----7-----|
A|--9----7----5----x-----|
D|--x----x----0----9-----|

[Verse 2]
e|----------------------|
B|----------------------|
G|--9----9----7---------|
D|--7----7----7---------| (x2)
A|--9----7----5---------|
D|--x----7----0---------|

[Pre-Chorus]  
"And I'll push you away.."
e|-----------------------|
B|-----------------------|
G|--9----9----9----7-----|
D|--7----0----0----7-----|
A|--0----x----x----5-----|
D|--x----9----7----0-----|

[Chorus]
e|----------------------|
B|----------------------|
G|--9----9----7---------|
D|--7----7----7---------|
A|--9----7----5---------|
D|--x----x----0---------|

"I only have myself to blame.."

e|-----------------------|
B|-----------------------|
G|--9----9----7----9-----|  (x4)
D|--7----7----7----7-----|
A|--9----7----5----x-----|
D|--x----x----0----9-----|

..Break..

[Back to chorus]
e|----------------------|
B|----------------------|
G|--9----9----7---------|
D|--7----7----7---------|
A|--9----7----5---------|
D|--x----x----0---------|

"I can't live without you.."

e|----------------|
B|----------------|
G|--9---9---------|
D|--7---7---------|
A|--9---0---------|
D|--x---0---------|


************************************

| x  Dead note

************************************
Suggest correction
comments
print report bad tab
guest
You may want to rate the tab now too:
select rating
Wanna post a correction for this tab? Suggest correction