Oops, an error
Loading. Please wait.

The Strays Acoustic tab

version 2
version 2

Whole song

91 views 18 this week
no commentswrite comment
1 2 3 4 5
2 more votes to show rating
add to favorites
×
Save as Personal and add changes to this tab that will be seen only by you. Learn more ›
×
You can save this tab as Personal to edit and correct it or add notes. All changes will be seen only by you. Learn more »
launch autoscroll
font size
0
reset
how to read this tab
guitar tuner
edit
Autoscroll
slow
fast
+/-
esc
set tempo
stop
So I've been obsessed with this song for maybe the last few weeks (as of typing this) and it was probably the
first SWS song I heard from them. I tabbed the song from a Youtube video
(link: https://youtu.be/kLtDLdN62YE ). This video is an acoustic version of the song, tuned down to C#.
If you where to play the song in standard tuning, it would sound more or less like the original version. Also,
if you play this song, you can either play it with low E muted or open, but I would recommend playing it with
low E open. Oh and also I would recommend watching the video or listening to the song for the strumming
pattern.

[Intro]
D#|-0-----------------0--------------------------0-/0-\0------------0-/0-\0--------------|
A#|-0-----------------0--------------------------0-/0-\0------------0-/0-\0--------------|
A#|-9-----------------9--------------------------8-/9-\6------------8-/9-\4--------------|
C#|-9-----------------9--------------------------8-/9-\6------------8-/9-\4--------------|  (x2)
G#|-7-----------------7--------------------------6-/7-\4------------6-/7-\2--------------|
D#|-0-----------------0--------------------------0-/0-\0------------0-/0-\0--------------|

1 2 3 4! (don't play again)
      
[Verse]
D#|-0-----------------------------|
A#|-0-----------------------------|
F#|-9-----------------------------|
C#|-9-----------------------------|  (x2)
G#|-7-----------------------------|
D#|-0-----------------------------|

[Pre-chorus]
D#|-0-----0-----0-----0------0-----------0-----0-----0-------|
A#|-0-----0-----0-----2------0-----------0-----0-----0-------|
F#|-6-----4-----6-----2------2-----------6-----4-----2-------|
C#|-6-----4-----6-----2--or--2---x2------6-----4-----2--x2---|
G#|-4-----2-----4-----0------0-----------4-----2-----0-------|
D#|-0-----0-----0-----0------0-----------0-----0-----0-------|

[Verse]
D#|-0-----------------------------|
A#|-0-----------------------------|
F#|-9-----------------------------|
C#|-9-----------------------------|  
G#|-7-----------------------------|
D#|-0-----------------------------|

[Chorus]                                              
D#|--0-----0------------|
A#|--0-----0------------|
F#|--6-----2------------|
C#|--6-----2----x2------|
G#|--4-----0------------|
D#|--0-----0------------|

[Bridge]          
D#|-0-----------------------------|
A#|-0-----------------------------|
F#|-9-----------------------------|
C#|-9-----------------------------|  
G#|-7-----------------------------|
D#|-0-----------------------------|
                                             
D#|--0-----0------------|
A#|--0-----0------------|
F#|--6-----2------------|
C#|--6-----2----x2------|
G#|--4-----0------------|
D#|--0-----0------------|


************************************

| /  Slide up
| \  Slide down
| x  Dead note
  
| /   Slide up 
| \   Slide down 

************************************
Suggest correction
Creating personal tab
Creating personal tab
You can edit any tab online and save it as your Personal.

You can edit, replace or remove any tab part or add personal notes – all changes will be seen only by you.

Personal tabs can be accessed anytime from any device, even offline.
Learn more »
Give kudos to tab author, rate the tab!
1 2 3 4 5
comments
print report bad tab
guest
Wanna post a correction for this tab? Suggest correction