Oops, an error
Loading. Please wait.

You Kill Me In A Good Way Acoustic Chords

45,917 views 33 this week
5 commentsread comments
1 2 3 4 5
x 8
add to favorites
launch autoscroll
font size
0
reset
transpose
0
reset
display chords
guitar tuner
Autoscroll
slow
fast
+/-
esc
set tempo
stop
Help us to improve Ultimate-Guitar.com Take our survey!
×
Author
Difficulty
Tuning
novice
C G C F A D
-------------------------------------------------------------------------------
            Sleeping With Sirens - You Kill Me (In a Good Way) Acoustic
-------------------------------------------------------------------------------
Tabbed by: Steph T.
Email: tevks@yahoo.fr

Tuning: Drop C

The same chords are played throughout the intro+verse+chorus


D|---0-------0---|
A|---0-------0---|
F|---0-------4---|
c|---12------2---|
G|---10------2---|
C|---10------2---|


 Bridge (hold on...)

D|-----x------x------x------x------0------|
A|-----x------x------x------x------0------|
F|-----x------x------x------x------0------|     repeat these chords 4 times
c|-----5------5------2------4------5------|
G|-----7------0------3------5------7------|
C|-----x------x------x------x------x------|


Don't you think that this is meant to be...


D|---0------0---|
A|---5------3---|
F|---7------0---|  x2
c|---5------2---|
G|---7------3---|
C|---x------2---|


And don't you think that we are...


D|---0------0------0--|
A|---5------5------3--|
F|---7------0------0--|  x2
c|---5------4------2--|
G|---7------5------3--|
C|---x------0------x--|


Don't give up because you're losing...


D|---0------0---|                 |--0---|
A|---0------0---|                 |--0---|
F|---0------4---|       end on :  |--0---|
c|---12-----2---|                 |--12--|
G|---10-----2---|                 |--10--|
C|---10-----2---|                 |--10--|



-------------------------------------------------------------------------------

-------------------------------------------------------------------------------
Suggest correction
comments
print report bad tab
5 comments total. Showing first comments.
0 reply
jezguitarist30 10 Jan 26, 2011 11:45 PM

Sir. I've forgot to Thank you for this.
Thank You Very Much! and Once again Nice Work.

0 reply
Steph T. 95 Jan 30, 2011 08:15 AM

no problem and thanks for the feedback :)

+2 reply
ted-jones 10 Sep 08, 2011 08:28 PM

please tab big gulps acoustic by sleeping with sirens i know its on 12 string but i just cant seem to get it

guest
You may want to rate the tab now too:
select rating
Wanna post a correction for this tab? Suggest correction