Oops, an error
Loading. Please wait.

Your Nickel Aint Worth My Dime Tab

version 2
version 2

Whole song

6,048 views 1 this week
1 commentread comment
1 2 3 4 5
please rate
add to favorites
launch autoscroll
font size
0
reset
how to read this tab
guitar tuner
Tab Pro tools
  • play this tab
  • loop segment
  • change instrument
  • show fretboard
  • metronome
×
Best way to learn
"Your Nickel Aint Worth My Dime"
Autoscroll
slow
fast
+/-
esc
set tempo
stop
Contributor
Difficulty
Tuning
novice
D G C F A D
-------------------------------------------------------------------------------
                             Your Nickel Ain't Worth My Dime - Sleeping With Sirens
-------------------------------------------------------------------------------
Tabbed by: Piggy-
Email: CaptainA2001@yahoo.com

*This is my first, rough, by ear, tablature so I will have mistakes (sorry!). Let me 
know what's wrong and I'll edit!

Tuning: Drop D

Verse 1: 0:00-0:18

"I found a love... oh my God!"
e|--------------------------------------------|
B|--------------------------------------------|
G|--------------------------------------------| (x2)
D|---7--7--7----7-7-7\\\2--2--2----2-2-2------|
A|---7--7--7----7-7-7\\\2--2--2----2-2-2------|
D|---7--7--7----7-7-7\\\2--2--2----2-2-2------|

Pre Chorus: 0:19- 0:26

"She's so unreal... all night long."
e|-------------------------------------|
B|-------------------------------------|
G|-------------*-*-*-*--*-*-*-*-*------|
D|---2----5----0-0-0-0-0-0-0-0-0-------|
A|---2----5----0-0-0-0-0-0-0-0-0-------|
D|---2----5----0-0-0-0-0-0-0-0-0-------|

Chorus: 0:27- 0:51

"I want to write.... take you home."
e|--------------------------------------|
B|--------------------------------------|
G|--------------------------------------|
D|---2-2------5-5------0-0--------------|
A|---2-2(x12)--5-5(x12)--0-0(x12)-------|
D|---2-2------5-5------0-0--------------|

Verse 2: 0:52-1:09

"Damn this girl... when you satisfy me."
e|--------------------------------------------|
B|--------------------------------------------|
G|--------------------------------------------| (x2)
D|---7--7--7----7-7-7\\\2--2--2----2-2-2------|
A|---7--7--7----7-7-7\\\2--2--2----2-2-2------|
D|---7--7--7----7-7-7\\\2--2--2----2-2-2------|

Pre Chorus: 1:10- 1:17

"I'll take you home... never ever known."
e|-------------------------------------|
B|-------------------------------------|
G|-------------*-*-*-*--*-*-*-*-*------|
D|---2----5----0-0-0-0-0-0-0-0-0-------|
A|---2----5----0-0-0-0-0-0-0-0-0-------|
D|---2----5----0-0-0-0-0-0-0-0-0-------|

Chorus: 1:18- 1:33

"I want to write.... of my heart."
e|------------------------------------|
B|------------------------------------|
G|------------------------------------|
D|---2-2------5-5------0-0------------|
A|---2-2(x12)-5-5(x12)-0-0(x12)-------|
D|---2-2------5-5------0-0------------|

Pre-Solo: 1:34- 1:50
"I want to take... more, more yeah."
e|---------------------------------------------|
B|---------------------------------------------|
G|--------------*----*----*-----*----*---------|
D|--2---5---0---2----4----5----0----0----------|
A|--2---5---0---2(x6)4(x2)5(x6)0(x6)0(x3)------|
D|--2---5---0---2----4----5----0----0----------|

Solo: 1:51- 1:58 (?) 1:59-2:06
e|--?-------15-15-----------------------------------12------------------12----|
B|--?-------------12-12-15-15------15h12-15h12-15h12---15h12-15h12-15h12------| (x2)
G|--?-------------------------11^b--------------------------------------------|
D|--?-------------------------------------------------------------------------|
A|--?-------------------------------------------------------------------------|
E|--?-------------------------------------------------------------------------|

Chorus: 2:07- 2:22

"I want to write... of my heart."
e|-----------------------------------------------|
B|-----------------------------------------------|
G|-----------------------------------------------|
D|-2----5----0-----2-2-------5-5------0-0--------|
A|-2(x8)5(x8)0(x12)2-2(x12)--5-5(x12)-0-0(x12)---|
D|-2----5----0-----2-2-------5-5------0-0--------|

Outro: 2:23- 2:48

"I want to take... of my heart."
e|---------------------------------------------------------------|
B|---------------------------------------------------------------|
G|---------------------------------------------------------------|
D|--2----4----5----0----2-------5------------------------x-------|
A|--2(x6)4(x2)5(x6)0(x9)2(x12)--5(x12)--3---x-x--x-x--3--x(x8)---|
D|--2----4----5----0----2-------5-------2---x-x--x-x--2--x-------|


************************************

| /   slide up
| \   slide down
| h   hammer-on
| p   pull-off
| ~   vibrato
| +   harmonic
| x   Mute note
| b   Bend
| pb  Pre-bend
| br  Bend release
| pbr Pre-bend release
| brb Bend release bend

************************************
comments
We did not receive enough feedback on this tab! Please rate:
print report bad tab
1 2 3 4 5
1 comment total.
+1 reply
skeetingbass wrote on August 23 2012, 12:13 pm

a lot is wrong

I want to post or [tab]
guest
You may want to rate the tab now too:
select rating
Please do not post tabs as comments. Select "correction" instead!